Song name
# A B C D E F G H I J K L M N O P Q R S T U V W X Y Z

Pillows - Third Eye tab

-----------------------|
---------5-7-----------|
-6-7-6-7---------------|
-----------------------|  (x2)
-----------------------|
-----------------------|

---------------------------|
---------2-3----------3-2--|
-2-4-2-4------2-4-2-4------|
---------------------------|
---------------------------|
---------------------------|
Tap to rate this tab
 
# A B C D E F G H I J K L M N O P Q R S T U V W X Y Z