Song name
# A B C D E F G H I J K L M N O P Q R S T U V W X Y Z

Pillows - Tokyo Zombie tab

TOKYO ZOMBIE

IMO, one of the best instrumentals. 
sorry i wasn't able to tab most of guitar 2, some people i know didn't want to 
help me tab this song so i tried my best.

GUITAR 1



e|------------------------------------------------------|
B|------------------------------------------------------|
G|------------3h4---5---//7-7b9r7--5--4-----------------|
D|----------4-----5---5-----------------5\3-3-----------|
A|-------5----------------------------------------------|
E|-3-5/7------------------------------------------------|


e|------------------------------------------------------|
B|------------------------------------------------------|
G|------------3h4---2-------4-4~------------------------|
D|----------4-----5---5--2-------3\2/3\2/3~-------------|
A|-------5----------------------------------------------|
E|-3-5/7------------------------------------------------|



GUITAR 2 (close enough) 

e|-0----0--------------------------------------------------------|
B|-10b--10b--10-8-8---8~---8---8----8---8---8---8---8---8-10-8---|
G|------------------9-------7h9------7h9-----7h9-----7h9---------|
D|---------------------------------------------------------------|
A|---------------------------------------------------------------|
E|---------------------------------------------------------------|

e|-0----0--------------------------------------------------------|
B|-10b--10b--10-8-8---8~---8---8----8---8---8-10p8h10p8h10sb-----|sb =
G|------------------9-------7h9------7h9-------------------------|slight bend
D|---------------------------------------------------------------|
A|---------------------------------------------------------------|
E|---------------------------------------------------------------|






GUITAR 1
e|---------------------------------------------------------------------------|
B|---------------------------------------------------------------------------|
G|---------------------------------------------------------------------------|
D|-7-7--9-9--10-10--9-9--7-7--9-7-9--8-8-------------------------------------|
A|-5-5--5-5--5--5---5-5--5-5--5-5-5--6-6-------------------------------------|
E|---------------------------------------------------------------------------|


GUITAR 2

e|--------------------------------------------------------------------------|
B|--------------------------------------------------------------------------|
G|-------sorry, wasn't able to tab this-------------------------------------|
D|--------------------------------------------------------------------------|
A|--------------------------------------------------------------------------|
E|--------------------------------------------------------------------------|


GUITAR 1
e|---------------------------------------------------------------------------|
B|---------------------------------------------------------------------------|
G|---------------------------------------------------------------------------|
D|-10--8-8--5-5-5--10--8-8--11-11-11--3--3-5--8-8-9--9-9-9-9-9---------------|
A|---------------------------------------------------------------------------|
E|-8---6-6--3-3-3--8---6-6--9--9--9---1--1-3--6-6-7--7-7-7-7-7---------------|




e|---------------------------------------------------------------------------|
B|---------------------------------------------------------------------------|
G|---------------------------------------------------------------------------|
D|-10--8-8--5-5-5--10--8-8--11-11-11--10--8-8--5-5-3~-3-3-3-3----------------|
A|---------------------------------------------------------------------------|
E|-8---6-6--3-3-3--8---6-6--9--9--9---8---6-6--3-3-1~-1-1-1-1----------------|



GUITAR 2 not tabbed yet for this..

e|--------7~---------------7~~------------7~------------7~~------------------|
B|--7-8-7----8--7~---8--7-----------7-8-7----8-7~--8--7----------------------|
G|---------------------------------------------------------------------------|
D|---------------------------------------------------------------------------|
A|---------------------------------------------------------------------------|
E|---------------------------------------------------------------------------|

the next part is a variation of the above. same notes, just different timing
(which im sure you're capable of figuring out).

no tabs for guitar 2 right now

after this is finished, its this

e|---------------------------------------------------------------------------|
B|---------------------------------------------------------------------------|
G|-----7-7-7-7-8-8-8-8-7-7-7-7-8-8-8-8---------------------------------------|
D|-----7-7-7-7-8-8-8-8-7-7-7-7-8-8-8-8---------------------------------------|
A|-----5-5-5-5-6-6-6-6-5-5-5-5-7-7-7-7---------------------------------------|
E|---------------------------------------------------------------------------|




e|---------------------------------------------------------------------------|
B|---------------------------------------------------------------------------|
G|------------3h4---5---//7-7b9r7--5--4--------------------------------------|
D|----------4-----5---5-----------------5\3-3--------------------------------|
A|-------5-------------------------------------------------------------------|
E|-3-5/7---------------------------------------------------------------------|


e|---------------------------------------------------|
B|---------------------------------------------------|
G|------------3h4---2-------4-4~---------------------|
D|----------4-----5---5--2-------3\2/3\2/3-4-5\\-----|
A|-------5-------------------------------------------|
E|-3-5/7---------------------------------------------|



e|-0----0--------------------------------------------------------|
B|-10b--10b--10-8-8---8~---8---8----8---8---8---8---8---8-10-8---|
G|------------------9-------7h9------7h9-----7h9-----7h9---------|
D|---------------------------------------------------------------|
A|---------------------------------------------------------------|
E|---------------------------------------------------------------|

e|-0----0--------------------------------------------------------|
B|-10b--10b--10-8-8---8~---8---8----8---8--8-10p8h10p8h10-11-12\\| 
G|------------------9-------7h9------7h9-------------------------|
D|---------------------------------------------------------------|
A|---------------------------------------------------------------|
E|---------------------------------------------------------------|
Tap to rate this tab
 
# A B C D E F G H I J K L M N O P Q R S T U V W X Y Z