Song name
# A B C D E F G H I J K L M N O P Q R S T U V W X Y Z

Pillows - Gazelle City tab

verse g1 (left speaker)
E||----------------|-------------------------|----------------|
B||--2-----------2-|-------------------------|--2-----------2-|
G||-----4-----2----|-------------------------|-----4-----2----|
D||--------4-------|-------4--4--2--4--2-----|--------4-------|
A||----------------|----------------------4--|----------------|
E||----------------|-------------------------|----------------|


-------------------------|
-------------------------|
----------------------2--|
-------4--4--2--4--2-----|
-------------------------|
-------------------------|   

verse g2 (right speaker)
E||----------------------|----------------------|
B||----------------------|----------------------|
G||----------------------|-------6---------6----|
D||-------7---------9----|-----------------7----|
A||--9---------9---------|--9---------7----7----|
E||----------------------|----------------------|





chorus g1: D A D A D A G 

Tap to rate this tab
# A B C D E F G H I J K L M N O P Q R S T U V W X Y Z