Song name
# A B C D E F G H I J K L M N O P Q R S T U V W X Y Z

Pillows - Johnny Strobe tab

-----------------------------------------------------------------
JOHNNY STROBE - the pillows
-----------------------------------------------------------------
Tabbed by: Frank Truei
Email: Brokensword421@hotmail.com

Tuning: EADGBE


PLAYING ORDER
Lead Part 1
Lead Part 2
Lead part 1
Lead Part 3
Lead Part 1
Lead Part 3
Lead Prechorus
Chorus
^repeat all the above, but see Chorus 2 for the change
Outro

LEAD PART 1
e|-------------------------------------------------|
B|----10----10----10----10----10----10----10----10-|
G|/11----11----11----11-----9-----9-----9-----9----|
D|-------------------------------------------------|
A|-------------------------------------------------|
E|-------------------------------------------------|

e|-------------------------------------------------|
B|----12----12----12----12-----5-----5-----5-----5-|
G|/11----11----11----11-----7-----7-----7-----7----|
D|-------------------------------------------------|
A|-------------------------------------------------|
E|-------------------------------------------------|

LEAD PART 2
e|-------------------------------------------------|
B|----10----10----10----10----10----10----10----10-|
G|/11----11----11----11-----9-----9-----9-----9----|
D|-------------------------------------------------|
A|-------------------------------------------------|
E|-------------------------------------------------|

e|-------------------------------------------------|
B|-----8-----8-----8-----8-----8-----8-----8-----8-|
G|/-7-----7-----7-----7-----7-----7-----7-----7----|
D|-------------------------------------------------|
A|-------------------------------------------------|
E|-------------------------------------------------|
LEAD PART 3
e|-------------------------------------------------|
B|----10----10----10----10----10----10----10----10-|
G|/11----11----11----11-----9-----9-----9-----9----|
D|-------------------------------------------------|
A|-------------------------------------------------|
E|-------------------------------------------------|

e|-------------------------------------------------|
B|/15----15----15----15----15----15----15----15----|
G|----12----12----12----12----12----12----12----12-|
D|-------------------------------------------------|
A|-------------------------------------------------|
E|-------------------------------------------------|

LEAD PRECHORUS

e|-------------------------------------------------|
B|---10----10----10-----10----10----10----10----10-|
G|-9-----9-----9-----9------7-----7-----7-----7----|
D|-------------------------------------------------|
A|-------------------------------------------------|
E|-------------------------------------------------|

e|-------------------------------------------------|
B|---10----10----10----10---3-----------4----------|
G|-9-----9-----9-----9------4-----------4----------|
D|--------------------------4-----------4----------|
A|--------------------------2-----------2----------|
E|-------------------------------------------------|

CHORUS

e|-------------------------------------------------|
B|-------------------------------------------------|
G|12-------14------14-14-14-11-11-11-12----12-12-12|\
D|12-------14------14-14-14-11-11-11-12----12-12-12| \
A|10-------12------12-12-12--9--9--9-10----10-10-10|  \
E|-------------------------------------------------|   \
                                                        x2 
e|--------------------------10-10-10-10-10-10-10-10|   /
B|--------------------------10-10-10-10-10-10-10-10|  /
G|12-12-12-14------14-14-14-11-11-11-11-11-11-11-11| /
D|12-12-12-14------14-14-14-12-12-12-12-12-12-12-12|/
A|10-10-10-12------12-12-12-12-12-12-12-12-12-12-12|
E|--------------------------10-10-10-10-10-10-10-10|

On the second repeat play that last D bar chord once and let it ring

CHORUS 2

e|-------------------------------------------------|
B|-------------------------------------------------|
G|12-------14------14-14-14-11-11-11-12----12-12-12|
D|12-------14------14-14-14-11-11-11-12----12-12-12| 
A|10-------12------12-12-12--9--9--9-10----10-10-10| 
E|-------------------------------------------------| 
                                                       
e|--------------------------10-10-10-10-10-10-10-10|  
B|--------------------------10-10-10-10-10-10-10-10|
G|12-12-12-14------14-14-14-11-11-11-11-11-11-11-11|
D|12-12-12-14------14-14-14-12-12-12-12-12-12-12-12|
A|10-10-10-12------12-12-12-12-12-12-12-12-12-12-12|
E|--------------------------10-10-10-10-10-10-10-10|

e|-------------------------------------------------|
B|-------------------------------------------------|
G|12-------14------14-14-14-11-11-11-12----12-12-12|
D|12-------14------14-14-14-11-11-11-12----12-12-12| 
A|10-------12------12-12-12--9--9--9-10----10-10-10|  
E|-------------------------------------------------|

e|-------------------------------------------------|  
B|-------------------------------------------------|
G|12-12-12-14------14-14-14-16-16-16-16-16-16-16-16|
D|12-12-12-14------14-14-14-16-16-16-16-16-16-16-16|
A|10-10-10-12------12-12-12-14-14-14-14-14-14-14-14|
E|-------------------------------------------------|

e|--------------------------------------------------------|
B|/8-10-10b12r10--/7-8-8b10r8--/8-10-10b12r10--15\2/15----|
G|--------------------------------------------------------|
D|--------------------------------------------------------|   x3
A|--------------------------------------------------------|
E|--------------------------------------------------------|


e|--------------------------------------------------------|
B|/8-10-10b12r10--/7-8-8b10r8--/8-10-10b12r10-/7----------|
G|--------------------------------------------------------|
D|--------------------------------------------------------|  
A|--------------------------------------------------------|
E|--------------------------------------------------------|

OUTRO
e|--------------------------------------------------------|
B|7-5------------7-5-----------7-5---8--7--5-7------------|
G|7-7------------7-7-----------7-7-7-7--7--7-7------------|
D|----7----7---7-----7---7---7---------------5------------|
A|------5----5---------5---5------------------------------|
E|--------------------------------------------------------|
Tap to rate this tab
 
# A B C D E F G H I J K L M N O P Q R S T U V W X Y Z