Song name
# A B C D E F G H I J K L M N O P Q R S T U V W X Y Z

Pillows - Limp Tomorrow tab

=======================================
              the pillows
             Limp Tomorrow
Track #1 on the 2011 album "HORN AGAIN"
=======================================

Tabbed by Pedro Macedo, A.K.A. Linkerman
Comments and ratings are very much appreciated!
E-mails to "o_samaritano-hellboy(at)sapo.pt"

Standard tuning


Intro Part A
  Rhythm guitar
e|-------------------|
B|-------------------|
G|-------------------| x12
D|-------------------|
A|-33333333-22222222-|
E|-33333333-33333333-|

  Lead guitar 1
e|-----------------------------------------|
B|-----------------------------------------|
G|-5~~--4~~-5~~-7-5-4~~-5~~--4~~-----------| x2
D|-----5--------------------5----7~~-4-5~~-|
A|-----------------------------------------|
E|-----------------------------------------|

  Lead guitar 2
e|-----------10-8-7-8~~~~~-----------------|
B|---------8--------------------7-8--------|
G|----------------------------------7~~~~~-|
D|-----------------------------------------|
A|-----------------------------------------|
E|-----------------------------------------|


Intro Part B
  Rhythm guitar         x3
e||---------------------||------------|
B||o-------------------o||------------|
G||--55555555-----------||------------|
D||--55555555-55555555--||-77777777-5-|
A||o-33333333-55555555-o||-77777777-5-|
E||-----------33333333--||-55555555-3-|

  Lead guitar
e|--------------------------------------------------------|
B|--------------------------------------------------------|
G|--------------------------------------------------------|
D|-10~~-\-5/9~~-10~~-/-12\10-9~~-10~~-\-5/9~~-7~~-\-4/5~~-|
A|--------------------------------------------------------|
E|--------------------------------------------------------|


Verse
e|----------------------------------|
B|----------------------------------|
G|----------------------------------| x3
D|----------------------------------|
A|-33333333333333333333333333333333-|
E|-33333333333333333333333333333333-|


Pre-Chorus
e|--------------------------------------|
B|--------------------------------------|
G|--------------------------------------|
D|-7-7-7-910-101010101010-555555-222222-|
A|-7-7-7-910-101010101010-555555-222222-|
E|-5-5-5-7-8--8-8-8-8-8-8-333333-000000-|

e|--------------------------xxxxxxxxxxxxxxxx-|
B|--------------------------xxxxxxxxxxxxxxxx-|
G|--------------------------xxxxxxxxxxxxxxxx-|
D|-7-7-7-910-101010101010-5-xxxxxxxxxxxxxxxx-|
A|-7-7-7-910-101010101010-5-xxxxxxxxxxxxxxxx-|
E|-5-5-5-7-8--8-8-8-8-8-8-3-xxxxxxxxxxxxxxxx-|


Play Verse x2
Play Pre-Chorus


Chorus 1
e|------------------------------------------------------------------|
B|------------------------------------------------------------------|
G|----------------------------55555555----------77777777------------|
D|-55555555-99999999-22222222-55555555-77777777-77777777-55555555-5-|
A|-55555555-99999999-22222222-33333333-77777777-55555555-55555555-5-|
E|-33333333-77777777-00000000----------55555555----------33333333-3-|


Play Verse x2
Play Pre-Chorus


Chorus 2
e|-------------------------------------------------------|
B|-------------------------------------------------------|
G|----------------------------55555555----------77777777-| x2
D|-55555555-99999999-22222222-55555555-77777777-77777777-|
A|-55555555-99999999-22222222-33333333-77777777-55555555-|
E|-33333333-77777777-00000000----------55555555----------|


Solo
   Rhythm guitar
e||----------------------------------------||--------------------------|
B||o--------------------------------------o||--------------------------|
G||----------------------------------------||--------------------------|
D||--7-7-7-910-101010101010-555555-222222--||-7-7-7-910-101010101010-5-|
A||o-7-7-7-910-101010101010-555555-222222-o||-7-7-7-910-101010101010-5-|
E||--5-5-5-7-8--8-8-8-8-8-8-333333-000000--||-5-5-5-7-8--8-8-8-8-8-8-3-|

  Lead guitar
e|--------------------------------------------------------------|
B|-/8-8-88-7-8~--8-8/10\8--10/12\8--8/12\8--8/13-12-10-12--12\8-|
G|--------------------------------------------------------------|
D|--------------------------------------------------------------|
A|--------------------------------------------------------------|
E|--------------------------------------------------------------|

e|---------------------------------------------------------------|
B|-8-88~--7b8r-7--------0~---------------------------------------|
G|---------------9-7--7-9~---------------------------------------|
D|-------------------------9\7--7/9-99~--7-9-9b10r-9-7--5-7--5-4-|
A|---------------------------------------------------------------|
E|---------------------------------------------------------------|

e|--------------------------------------------|
B|--------------------------------------------|
G|--------------------------------------------|
D|---------4-5p0-0-7p0-9p0-10p0-9-10-11-12~~\-|
A|-7-5-7-8------------------------------------|
E|--------------------------------------------|


Final Chorus
e|-------------------------------------------------------|
B|-------------------------------------------------------|
G|----------------------------55555555----------77777777-| x2
D|-55555555-99999999-22222222-55555555-77777777-77777777-|
A|-55555555-99999999-22222222-33333333-77777777-55555555-|
E|-33333333-77777777-00000000----------55555555----------|

e|--------------------------------------|
B|--------------------------------------|
G|----------------------------777777-7~-|
D|-55555555-22222222-77777777-777777-7~-|
A|-55555555-22222222-77777777-555555-5~-|
E|-33333333-00000000-55555555-----------|


Outro
   (Lead guitar plays Intro Part B)
   Rhythm guitar        x3
e||---------------------||--------------|
B||o-------------------o||--------------|
G||---------------------||--------------|
D||---------------------||--------------|
A||o-33333333-22222222-o||-777777-4-5~~-|
E||--33333333-33333333--||-555555-2-3~~-|
Tap to rate this tab
 
# A B C D E F G H I J K L M N O P Q R S T U V W X Y Z