Song name
# A B C D E F G H I J K L M N O P Q R S T U V W X Y Z

Pillows - Primer Beat tab

=====================================
             the pillows
             Primer Beat
Track #10 on the 2009 album "OOPARTS"
=====================================

Tabbed by Pedro Macedo, A.K.A. Linkerman
Comments and ratings are very much appreciated!
E-mails to "o_samaritano-hellboy(at)sapo.pt"

Standard tuning


Main riff A           x3
e||-------------------||----------------|
B||o-88-8-88-88-8-88-o||-88-8-88-888888-|
G||--77-9-97-77-9-99--||-77-9-97-777777-|
D||--99-9-99-99-9-99--||-99-9-99-999999-|
A||o-----------------o||----------------|
E||-------------------||----------------|


Verse 1
e|--------------------|---------------|-------13/15-15-15-|
B|-7h8p7--------------|---------------|-------------------|
G|-------9--7-5-4-----|---------------|-11h12-------------|
D|----------------7\0-|---------------|-------------------|
A|--------------------|-9br-7-\5/-7-7-|-------------------|
E|--------------------|---------------|-------------------|


Main riff B
e|-----------------|----------------|
B|-88-8-88-88-8-88-|-88-8-88-888888-|
G|-77-9-97-77-9-99-|-77-9-97-777777-|
D|-99-9-99-99-9-99-|-99-9-99-999999-|
A|-----------------|----------------|
E|-----------------|----------------|


Verse 2
e|-10/12-12121212-xx-10/12-12121212\-|-----------------------|-------------|
B|-10/12-12121212-xx-10/12-12121212\-|-----------------------|-------------|
G|-----------------------------------|-7h8h9-----------------|-4---6---8---|
D|-----------------------------------|------7h8h9------------|-------------|
A|-----------------------------------|-----------5h6h7-------|-5br-7br-9br-|
E|-----------------------------------|----------------5h6h7\-|-------------|


Play Main riff B


Chorus
e|---5-55-77-555--55555555----7-77-77-777--7-xx-77-x77-|
B|---5-55-55-555--77777777----7-77-77-777--9-xx-99-x99-|
G|---5-55-55-555--77777777----7-77-99-777--7-xx-77-x77-|
D|-7-7-77-77-777--77777777--9-9-99-99-999--9-xx-99-x99-|
A|-----------------------------------------------------|
E|-----------------------------------------------------|

e|---5-55-77-555--55555555-------10---|
B|---5-55-55-555--77777777-------10---|
G|---5-55-55-555--77777777--5-----7---|
D|-7-7-77-77-777--77777777--5---------|
A|--------------------------3---------|
E|------------------------------------|


Play Main riff B


Verse 3
e|------------------------------------|------------------------------------|
B|------12------12------12------12----|------12------12------12------12----|
G|-12h15---12h15---12h15---12h15---12-|-12h13---12h13---12h13---12h13---12-|
D|------------------------------------|------------------------------------|
A|------------------------------------|------------------------------------|
E|------------------------------------|------------------------------------|

e|----------------12-14----15-|-10101010--12~~-------------------|
B|-13-12-13-14-15-------15----|-10101010--12~~--------8/10-8-7~~-|
G|----------------------------|--9-9-9-9--10~~--7/9-7------------|
D|----------------------------|-10101010--10~~--------5/-7-5-4~~-|
A|----------------------------|-----------------5/7-5------------|
E|----------------------------|----------------------------------|

e|---------------------------|---------------------1515-1414-1212-|
B|-7/--11/12-11/12-11/12-9~~-|-1010-1212-1313-1010----------------|
G|---------------------------|---------------------1212-1111--9-9-|
D|-4/---8/-9--8/-9--8/-9-6~~-|--7-7--9-9-1010--7-7----------------|
A|---------------------------|------------------------------------|
E|---------------------------|------------------------------------|


Play Main riff B
Play Chorus


Solo
e|-------------------------|-------------------------------------------|
B|-3--3--3--3---6--6---3---|-------------------------------------------|
G|-------------------------|-9/12-1212121212121212-1111-1212-1414-1616-|
D|-5br5br5br5br-8br8br-5br-|-------------------------------------------|
A|-------------------------|-7/10-1010101010101010--9-9-1010-1212-1414-|
E|-------------------------|-------------------------------------------|

e|------------------------13---|-----------------------------------|
B|------------------------16br-|----------------8-10-8~-7h8p7-7----|
G|-44-3-4-5-4-5-6-7777-9--16br-|------------7-9--------------9-9-7-|
D|-----------------------------|---5-7p5-7/9-----------------------|
A|-22-1-2-3-2-3-4-5555-7-------|-/7--------------------------------|
E|-----------------------------|-----------------------------------|

e|----------------|-/15--15--15--15--15--15---|
B|-----------10---|-/17br17br17br17br17br17br-|
G|-9/12-11-12--12-|---------------------------|
D|----------------|---------------------------|
A|----------------|---------------------------|
E|----------------|---------------------------|

e|-19p15--19p15--19p15--19p15--19p15------15-|
B|------17-----17-----17-----17-----17-17-17-|
G|-------------------------------------------|
D|-------------------------------------------|
A|-------------------------------------------|
E|-------------------------------------------|


Play Chorus


End                   x3
e||-------------------||----------|
B||o-88-8-88-88-8-88-o||-88-888-8-|
G||--77-9-97-77-9-99--||-77-999-7-|
D||--99-9-99-99-9-99--||-99-999-9-|
A||o-----------------o||----------|
E||-------------------||----------|
Tap to rate this tab
 
# A B C D E F G H I J K L M N O P Q R S T U V W X Y Z