Song name
# A B C D E F G H I J K L M N O P Q R S T U V W X Y Z

Pillows - Curly Rudy tab

Song: Curly Rudy
Artist: The Pillows
Album: Carnival
Tabbed By: Shinkoshi Raigaa

Standard Tuning

  Intro/Verse
|---------------------------------|-----------------------------|
|---------------------------------|-----------------------------|
|---------------------------------|-----------------------------|
|---7-7---------------------------|-----------------------------|
|---5-5-7/9-10\5-5-5--5-5---------|-7-7-5/7-10\7-7-7------------|
|-------5/7-8-\3-3-3--3-3-----(x3)|-5-5-3/5-8-\5-5-5--------(x1)|
                                     repeat for a while
  Chorus
|------------------------------------------------------------------|
|------------------------------------------------------------------|
|------------------------------------------------------------------|
|-------------------------7-7-7-7-----------------7-7-7-7--7-7-7-7-|
|-5-5-5-5-7-7-7-7-9-9-9-9-5-5-5-5-5-5-5-5-7-7-7-7-5-5-5-5--5-5-5-5-|
|-3-3-3-3-5-5-5-5-7-7-7-7---------3-3-3-3-5-5-5-5------------------|

 This is pretty much the whole except 
 for the variations of the chorus and 
 all the stuff they play over it. But 
 i think if you wanted to know it then 
 you can fugure it out. (I'm just Lazy)
Tap to rate this tab
# A B C D E F G H I J K L M N O P Q R S T U V W X Y Z