Guitaretab - guitar tabs
Song name
# A B C D E F G H I J K L M N O P Q R S T U V W X Y Z

Pillows - Runners High tab

Song: Runners High

Artist: The Pillows

Tab: Standard

This is my first tab, so if there is something wrong, sorry!


e|-------------------------------------------------------------------|
B|-------------------------------------------------------------------|
G|--12--12-9-9-7----5--5-7-7-----------------------------------------|
D|--12--12-9-9-7x5--5--5-7-7-5---------------------------------------|
A|--10--10-7-7-5----3--3-5-5-5x5-------------------------------------|x2
E|---------------------------3---------------------------------------|

e|-------------------------------------------------------------------|
B|-------------------------------------------------------------------|
G|--12--9--7---5-7---------------------------------------------------|
D|--12--9--7x4-5-7-5-------------------------------------------------|
A|--10--7--5---3-5-5x4-----------------------------------------------|x2
E|-----------------3-------------------------------------------------|

e|-------------------------------------------------------------------|
B|-------------------------------------------------------------------|
G|--5-------7---9----------------------------------------------------|
D|--5x8-5---7x8-9x8--------------------------------------------------|
A|--3---5x8-5---7----------------------------------------------------|
E|------3------------------------------------------------------------|
[ Tab from: http://www.guitaretab.com/p/pillows/48704.html ]
e|-------------------------------------------------------------------|
B|-------------------------------------------------------------------|
G|--5----7---7~~~~~~-------------------------------------------------|
D|--5x16-7x8-7~~~~~~-------------------------------------------------|
A|--3----5---5~~~~~~-------------------------------------------------|
E|-------------------------------------------------------------------|

e|-------------------------------------------------------------------|
B|-------------------------------------------------------------------|
G|--12--12-9-9-7----5--5-7-7-----------------------------------------|
D|--12--12-9-9-7x5--5--5-7-7-5---------------------------------------|
A|--10--10-7-7-5----3--3-5-5-5x5-------------------------------------|x2
E|---------------------------3---------------------------------------|

e|-------------------------------------------------------------------|
B|-------------------------------------------------------------------|
G|--12--9--7---5-7---------------------------------------------------|
D|--12--9--7x4-5-7-5-------------------------------------------------|
A|--10--7--5---3-5-5x4-----------------------------------------------|x2
E|-----------------3-------------------------------------------------|

e|-------------------------------------------------------------------|
B|-------------------------------------------------------------------|
G|--5-------7---9----------------------------------------------------|
D|--5x8-5---7x8-9x8--------------------------------------------------|
A|--3---5x8-5---7----------------------------------------------------|
E|------3------------------------------------------------------------|

e|-------------------------------------------------------------------|
B|-------------------------------------------------------------------|
G|--12--12-9-9-7----5--5-7-7-----------------------------------------|
D|--12--12-9-9-7x5--5--5-7-7-5-5-------------------------------------|
A|--10--10-7-7-5----3--3-5-5-5-5x4-----------------------------------|
E|---------------------------3-3-------------------------------------|
Related for Runners High tab
Advertisement will be closed in 10 seconds