Song name
# A B C D E F G H I J K L M N O P Q R S T U V W X Y Z

Pillows - Beautiful Morning With You tab

Here it is

E|--------------------------------------------|
B|--------------------------------------------|
G|--------2-----------------------------------|
D|--2--2--2--5--2--3-3-3-3-3-3-3-3------------|
A|--2--3--0--5--2--3-3-3-3-3-3-3-3------------|
E|--0--1-----3--0--1-1-1-1-1-1-1-1------------|

E|--------------------------------------------|
B|--------------------------------------------|
G|--------2-----------------------------------|
D|--2--2--2--5--2--3-3-3-3-3-3-3-3------------|
A|--2--3--0--5--2--3-3-3-3-3-3-3-3------------|
E|--0--1-----3--0--1-1-1-1-1-1-1-1------------|


E|---------------------------------------------|
B|---------------------------------------------|
G|---------------------------------------------|
D|--3-3--5--2--2--3-3--5--2--2--3-3-3-3-3-3-3-3|
A|--3-3--5--2--3--3-3--5--2--3--3-3-3-3-3-3-3-3|
E|--1-1--3--0--1--1-1--3--0--1--1-1-1-1-1-1-1-1|


E|---------7h8-7h8-7h8-7h8--------------------|
B|--------------------------------------------|
G|--------------------------------------------|
D|--------------------------------------------|
A|--------------------------------------------|
E|--------------------------------------------|

Tap to rate this tab
# A B C D E F G H I J K L M N O P Q R S T U V W X Y Z