Song name
# A B C D E F G H I J K L M N O P Q R S T U V W X Y Z

Pillows - Bran-new Lovesong tab

Artist - The Pillows
Track - Bran-New Lovesong
Album - FLCL OST 1: Addict
Tabbed By -  Nick Dobromilsky (Shizoku)

Guitar 1

e|-3-3-x-x-------x-x---0-0-0---0--0-0--|
G|-3-3-x-x---4-4-x-x---0-0-0---1--1-1--|
B|-0-0-x-x---4-4-x-x---0-0-0---0--0-0--|
D|-0-0-x-x---4-4-x-x---2-2-2---2--2-2--|
A|-2-2-x-x---2-2-x-x---2-2-2---3--3-3--|
E|-3-3-x-x-----------------------------|

Guitar 2
                                       
e|-------------------------------------|
B|-15~~~~~~~/16~~~~~~~/17~/12/10~/12~~~|
G|-------------------------------------|
D|-------------------------------------|
A|-------------------------------------|
E|-------------------------------------|

Guitar 1

e|-3-3-x-x------x-x--0-0-x-x--0-0-x-x--|
G|-3-3-x-x--4-4-x-x--0-0-x-x--1-1-x-x--|
B|-0-0-x-x--4-4-x-x--0-0-x-x--0-0-x-x--|
D|-0-0-x-x--4-4-x-x--2-2-x-x--2-2-x-x--|
A|-2-2-x-x--2-2-x-x--2-2-x-x--3-3-x-x--|
E|-3-3-x-x-----------------------------|
                                       
Guitar 2                               
                                       
e|-------------------------------------|
B|-12~~~~~~~~~~~~~~~~/17~/12~~~~/13~~~~|
G|-------------------------------------|
D|-------------------------------------|
A|-------------------------------------|
E|-------------------------------------|

Guitar 1

e|-0-0-x-x--0-0-x-x--2-2-x-x--3-3-x-x--|
B|-1-1-x-x--1-1-x-x--3-3-x-x--3-3-x-x--|
G|-2-2-x-x--0-0-x-x--2-2-x-x--0-0-x-x--|
D|-2-2-x-x--2-2-x-x--0-0-x-x--0-0-x-x--|
A|----------3-3-x-x-----------2-2-x-x--|
E|----------------------------3-3-x-x--|
                                       
Guitar 2                                
                                       
e|-------------------------------------|
B|-10~~~~~~/12~~~~~~/10~~~~~~/8~~~~~~~~|
G|-------------------------------------|
D|-------------------------------------|
A|-------------------------------------|
E|-------------------------------------|

Guitar 1

e|-3-3-x-x-------x-x---0-0---0-0---|
G|-3-3-x-x---4-4-x-x---0-0---1-1---|
B|-4-4-x-x---4-4-x-x---0-0---0-0---|
D|-5-5-x-x---4-4-x-x---2-2---2-2---|
A|-5-5-x-x---2-2-x-x---2-2---3-3---|
E|-3-3-x-x-------------------------|
                                   
Guitar 2                                                            
                                                                               
e|----------------------0-----0----|
B|-------------4---4----0-----1----|
G|-----------4---4-----------------|
D|---------------------------------|
A|---------------------------------|
E|---------------------------------|

Guitar 1

e|-3-3-x-x-------x-x---0-0---0-0---|
G|-3-3-x-x---4-4-x-x---0-0---1-1---|
B|-4-4-x-x---4-4-x-x---0-0---0-0---|
D|-5-5-x-x---4-4-x-x---2-2---2-2---|
A|-5-5-x-x---2-2-x-x---2-2---3-3---|
E|-3-3-x-x-------------------------|

Guitar 2                                                            
                                                                               
e|----------------------0------0---|
B|-------------4---4----0----1---1-|
G|-----------4---4---------0-------|
D|---------------------------------|
A|---------------------------------|
E|---------------------------------|

Guitar 1

e|-0-0-x-x--0-0-x-x--2-2-x-x--3-3-x-x--|
B|-1-1-x-x--1-1-x-x--3-3-x-x--3-3-x-x--|
G|-2-2-x-x--0-0-x-x--2-2-x-x--0-0-x-x--|
D|-2-2-x-x--2-2-x-x--0-0-x-x--0-0-x-x--|
A|----------3-3-x-x-----------2-2-x-x--|
E|----------------------------3-3-x-x--|

Guitar 2                                                            
                                                                               
e|-0-0--------0---0----2---2--3--3-----|
B|-1-1------1---1----3---3----3--3-----|
G|----------------------------0--------|
D|-------------------------------------|
A|-------------------------------------|
E|-------------------------------------|

Guitar 1

e|---------------------------------|
B|---------------------------------|
G|-5-5-5-5/---4-4/---11--11--11----|
D|-x-x-x-x/---x-x/---x---x---x-----|
A|-3-3-3-3/---2-2/---9---9---9-----|
E|---------------------------------|
                                  
Guitar 2                             
                                            
e|-0---0---0---0---0---0---0---0---|
B|-1---1---1---1---0---0---0---0---|
G|-2---2---2---2---4---4---4---4---|
D|---------------------------------|
A|---------------------------------|
E|---------------------------------|

Guitar 1

e|---------------------------------|
B|---------------------------------|
G|-5-5-5-5-------------------------|
D|-x-x-x-x/------7--7/--9-9/--5-5--|
A|-3-3-3-3/------x--x/--x-x/--x-x--|
E|---------------5--5/--7-7/--3-3--|

Guitar 2                             
                                            
e|-0---0---0---0---0---0---0---0---|
B|-1---1---1---1---0---0---0---0---|
G|-2---2---2---2---4---4---4---4---|
D|---------------------------------|
A|---------------------------------|
E|---------------------------------|

Guitar 1

e|---------------------------------|
B|---------------------------------|
G|-5-5-5-5/---4-4/---11--11--11----|
D|-x-x-x-x/---x-x/---x---x---x-----|
A|-3-3-3-3/---2-2/---9---9---9-----|
E|---------------------------------|
                                  
Guitar 2                             
                                            
e|-0---0---0---0---0---0---0---0---|
B|-1---1---1---1---0---0---0---0---|
G|-2---2---2---2---4---4---4---4---|
D|---------------------------------|
A|---------------------------------|
E|---------------------------------|

Guitar 1

e|---------------------------------|
B|---------------------------------|
G|-5-5-5-5/-4-4-4/-9-9-9/-11-11-11-|
D|-x-x-x-x/-x-x-x/-x-x-x/-x--x--x--|
A|-3-3-3-3/-2-2-2/-6-6-6/-9--9--9--|
E|---------------------------------|

Guitar 2                             
                                            
e|-0---0---0---0---0---0---0---0---|
B|-1---1---1---1---0---0---0---0---|
G|-2---2---2---2---4---4---4---4---|
D|---------------------------------|
A|---------------------------------|
E|---------------------------------|

Guitar 1 - 4x

e|----------------------------------| 
B|----------------------------------|
G|-5-5-5-5-5-5-5-5------------------|
D|-5-5-5-5-5-5-5-5--5-5-5-5-5-5-5-5-|
A|-3-3-3-3-3-3-3-3--5-5-5-5-5-5-5-5-|
E|-3-3-3-3-3-3-3-3--3-3-3-3-3-3-3-3-|

Guitar 1

e|-------------------3--------------| 
B|-------------------0--------------|
G|-5-5-5-5--5/-4/-2--0--------------|
D|-5-5-5-5--5/-4/-2--0--------------|
A|-3-3-3-3--3/-2/-0--2--------------|
E|-3-3-3-3-----------3--------------|

Guitar 1 - x2

e|-0-0-0-0-0-0-0-0--3-3-3-3-3-3-3-3-|
G|-1-1-1-1-1-1-1-1--3-3-3-3-3-3-3-3-|
B|-0-0-0-0-0-0-0-0--0-0-0-0-0-0-0-0-|
D|-2-2-2-2-2-2-2-2--0-0-0-0-0-0-0-0-|
A|-3-3-3-3-3-3-3-3--2-2-2-2-2-2-2-2-|
E|------------------3-3-3-3-3-3-3-3-|

Guitar 2 - 2x                                
                                       
e|----------------------------------|
B|-8/~~~~~~~~~~~~~~~10/~~~~~~~~~~~~~|
G|----------------------------------|
D|----------------------------------|
A|----------------------------------|
E|----------------------------------|
Tap to rate this tab
 
# A B C D E F G H I J K L M N O P Q R S T U V W X Y Z