Guitaretab - guitar tabs
Song name
# A B C D E F G H I J K L M N O P Q R S T U V W X Y Z

Pillows - Hybrid Rainbow tab

This is my first tab, so contact me at Rickenbackerazn@yahoo.com if there are mistakes.

This is tabbed from watching the "How to Master Hybrid Rainbow in a Week" by the 
and a mix of the Band score as well.
I'm using the way I play, so don't think it to be textbook perfect.

Hybrid Rainbow -Manabe Side-
[Intro 1]                      V-Vibrato-------------------------------------|V
|----3-5-7-3----------2h3p2-----/10----10-----10-----------------------------|
|--3---------3-3h5p3--------3-------8-8---8-8--------------------------------|
|-0-0-0-0--------------------------------------------------------------------|
|----------------------------------------------------------------------------|
|----------------------------------------------------------------------------|
|----------------------------------------------------------------------------|

|----3-5-7-3---------------------------------------------------------------|
|--3---------3-3h5p3-------------------------------------------------------|
|-0-0-0-0-------------11^-9-7/4--4/7--7/4-4--------------------------------|
|--------------------------------------------------------------------------|
|--------------------------------------------------------------------------|
|--------------------------------------------------------------------------|
[A]
|--------------------------------10----------------------------------------|
|-----8---8-------10--------8-------8--------8-----------------------------|
|-----------------------------0------------0-------------------------------|
|-/10-------10/12------/9-9------------------------------------------------|
|--------------------------------------------------------------------------|
|--------------------------------------------------------------------------|

|---------------------------------10---------------------------------------|
|-----8---8-------10----------8-------8--------8---------------------------|
|-------------------------------0------------0-----------------------------|
|-9/10-------10/12------12/9-9---------------------------------------------|
|--------------------------------------------------------------------------|
|--------------------------------------------------------------------------|

|---------------------------------10---------------------------------------|
|-----8---8-------10----------8-------8--------8---------------------------|
|-------------------------------0------------0-----------------------------|
|-9/10-------10/12------12/9-9---------------------------------------------|
|--------------------------------------------------------------------------|
|--------------------------------------------------------------------------|

|--------------------------------------------------------------------------|
|-----8---8-------10-----------8-----8---------8---8-----------------------|
|-----------------------------------------0--------------------------------|
|-9/10-------10/12------12/9-9----9---------/9---9-------------------------|
|--------------------------------------------------------------------------|
|--------------------------------------------------------------------------|
[C]
|-3----------------3--0------------------------3-----------------3---------|
|-3-----------3-------0------------------------3----------3----------------|
|-5--------/4-----4---2----------0-----0-----0-5--------4------4-----------|
|-5-------------------2-------/5---5/4---4/2---5---------------------------|
|---------------------0----------------------------------------------------|
|--------------------------------------------------------------------------|
[C: ending 1]
|---------------------|
|-----7---7--10-8-7---|
|-/7--7---7---7-7-7---|
|---------------------|
|---------------------|
|---------------------|
[Chorus]
|-3--3--3-3-3---3--3-3-3--3-3-3--0-0--0-0-0--0--0-0--0-0-0-0--------|
|-3--3--3-3-3---3--3-3-3--3-3-3--1-1--1-1-1--3--3-3--3-3-3-3--------|
|-5--5--5-5-5---0--0-0-0--0-0-0--0-0--0-0-0--0--0-0--0-0-0-0--------|
|-5--5--5-5-5---0--0-0-0--0-0-0--2-2--2-2-2--2--2-2--2-2-2-2--------|
|-3--3--3-3-3---0--0-0-0--0-0-0--0-0--0-0-0--2--2-2--2-2-2-2--------|
|-3--3--3-3-3---3--3-3-3--3-3-3--------------0--0-0--0-0-0-0--------|

|-3--3--3-3-3---3--3-3-3--3-3-3--2-2-2-3-3------------------------3-|
|-3--3--3-3-3---3--3-3-3--3-3-3--3-3-3-3-3--1---------------------3-|
|-5--5--5-5-5---0--0-0-0--0-0-0--2-2-2-2-2--0-------0-2p0---0-----0-|
|-5--5--5-5-5---0--0-0-0--0-0-0-------------2----0h2------2---2p0-0-|
|-3--3--3-3-3---0--0-0-0--0-0-0-------------3---------------------0-|
|-3--3--3-3-3---3--3-3-3--3-3-3-----------------------------------3-|

[Intro 2]                         V-Vibrato----------------------------------|V
|----3-5-7-3----------2h3p2-----/10----10-----10-----------------------------|
|--3---------3-3h5p3--------3-------8-8---8-8--------------------------------|
|-0-0-0-0--------------------------------------------------------------------|
|----------------------------------------------------------------------------|
|----------------------------------------------------------------------------|
|----------------------------------------------------------------------------|
[ Tab from: http://www.guitaretab.com/p/pillows/50468.html ]
|----3-5-7-3---------------------------------------------------------------|
|--3---------3-3h5p3-------------------------------------------------------|
|-0-0-0-0-------------11^-9-7/4--4/7/4/7/4-4/7/4---------------------------|
|--------------------------------------------------------------------------|
|--------------------------------------------------------------------------|
|--------------------------------------------------------------------------|
[A]
|--------------------------------10----------------------------------------|
|-----8---8-------10--------8-------8--------8-----------------------------|
|-----------------------------0------------0-------------------------------|
|-/10-------10/12------/9-9------------------------------------------------|
|--------------------------------------------------------------------------|
|--------------------------------------------------------------------------|

|---------------------------------10---------------------------------------|
|-----8---8-------10----------8-------8--------8---------------------------|
|-------------------------------0------------0-----------------------------|
|-9/10-------10/12------12/9-9---------------------------------------------|
|--------------------------------------------------------------------------|
|--------------------------------------------------------------------------|

|---------------------------------10---------------------------------------|
|-----8---8-------10----------8-------8--------8---------------------------|
|-------------------------------0------------0-----------------------------|
|-9/10-------10/12------12/9-9---------------------------------------------|
|--------------------------------------------------------------------------|
|--------------------------------------------------------------------------|

|--------------------------------------------------------------------------|
|-----8---8-------10-----------8-----8---------8---8-----------------------|
|-----------------------------------------0--------------------------------|
|-9/10-------10/12------12/9-9----9---------/9---9-------------------------|
|--------------------------------------------------------------------------|
|--------------------------------------------------------------------------|

[C]
|-3----------------3--0------------------------3-----------------3---------|
|-3-----------3-------0------------------------3----------3----------------|
|-5--------/4-----4---2----------0-----0-----0-5--------4------4-----------|
|-5-------------------2-------/5---5/4---4/2---5---------------------------|
|---------------------0----------------------------------------------------|
|--------------------------------------------------------------------------|

[C: ending 2]
|---------------------|
|-----7---8----10-----|
|-/7-----7---7--------|
|---------------------|
|---------------------|
|---------------------|

[Chorus]
|-3--3--3-3-3---3--3-3-3--3-3-3--0-0--0-0-0--0--0-0--0-0-0-0--------|
|-3--3--3-3-3---3--3-3-3--3-3-3--1-1--1-1-1--3--3-3--3-3-3-3--------|
|-5--5--5-5-5---0--0-0-0--0-0-0--0-0--0-0-0--0--0-0--0-0-0-0--------|
|-5--5--5-5-5---0--0-0-0--0-0-0--2-2--2-2-2--2--2-2--2-2-2-2--------|
|-3--3--3-3-3---0--0-0-0--0-0-0--0-0--0-0-0--2--2-2--2-2-2-2--------|
|-3--3--3-3-3---3--3-3-3--3-3-3--------------0--0-0--0-0-0-0--------|

|-3--3--3-3-3---3--3-3-3--3-3-3--2-2-2-3-3------------------------3-|
|-3--3--3-3-3---3--3-3-3--3-3-3--3-3-3-3-3--1---------------------3-|
|-5--5--5-5-5---0--0-0-0--0-0-0--2-2-2-2-2--0-------0-2p0---0-----0-|
|-5--5--5-5-5---0--0-0-0--0-0-0-------------2----0h2------2---2p0-0-|
|-3--3--3-3-3---0--0-0-0--0-0-0-------------3---------------------0-|
|-3--3--3-3-3---3--3-3-3--3-3-3-----------------------------------3-|

[Solo-all tremolo picking]
|------------------------------|
|------------------------------|
|-4--5--7--9--/12-11--/1412/--|
|------------------------------|
|-2--3--5--7--/10--9--/1210/--|
|------------------------------|

|------------------------------|
|------------------------------|
|-4--5--7--9--/12-11--/1412/--|
|------------------------------|
|-2--3--5--7--/10--9--/1210/--|
|------------------------------|

|------------------------------------------------------------|
|-------------13--12--8---13--12--8--------------------------|
|-7/16--/16--------------------------/7-/9-/11-/12-----------|
|-------------10---9--5---10---9--10-------------------------|
|-5/14--/14--------------------------/5-/7-/9--/10-----------|
|------------------------------------------------------------|

|------------------------------------------------------------|
|-13--12--8--13--12--8-8-8-8----/15--------------------------|
|-------------------------------/12--------------------------|
|-10---9--5--10---9--5-5-5-5---------------------------------|
|------------------------------------------------------------|
|------------------------------------------------------------|

[Chorus version 3: ending]
|-3--3--3-3-3---3--3-3-3--3-3-3--0-0--0-0-0--0--0-0--0-0-0-0--------|
|-3--3--3-3-3---3--3-3-3--3-3-3--1-1--1-1-1--3--3-3--3-3-3-3--------|
|-5--5--5-5-5---0--0-0-0--0-0-0--0-0--0-0-0--0--0-0--0-0-0-0--------|
|-5--5--5-5-5---0--0-0-0--0-0-0--2-2--2-2-2--2--2-2--2-2-2-2--------|
|-3--3--3-3-3---0--0-0-0--0-0-0--0-0--0-0-0--2--2-2--2-2-2-2--------|
|-3--3--3-3-3---3--3-3-3--3-3-3--------------0--0-0--0-0-0-0--------|
                                             V---V = Tremolo Picking
|-3--3--3-3-3---3--3-3-3--3-3-3--0-0--0-0-0--------X-----------------|
|-3--3--3-3-3---3--3-3-3--3-3-3--1-1--1-1-1--------X-----------------|
|-5--5--5-5-5---0--0-0-0--0-0-0--0-0--0-0-0--4-5-7-X-----------------|
|-5--5--5-5-5---0--0-0-0--0-0-0--2-2--2-2-2--------X-----------------|
|-3--3--3-3-3---0--0-0-0--0-0-0--0-0--0-0-0--23-5-X-----------------|
|-3--3--3-3-3---3--3-3-3--3-3-3--------------------X-----------------|

|-3--3--3-3-3---3--3-3-3--3-3-3--0-0--0-0-0--0--0-0--0-0-0-0--------|
|-3--3--3-3-3---3--3-3-3--3-3-3--1-1--1-1-1--3--3-3--3-3-3-3--------|
|-5--5--5-5-5---0--0-0-0--0-0-0--0-0--0-0-0--0--0-0--0-0-0-0--------|
|-5--5--5-5-5---0--0-0-0--0-0-0--2-2--2-2-2--2--2-2--2-2-2-2--------|
|-3--3--3-3-3---0--0-0-0--0-0-0--0-0--0-0-0--2--2-2--2-2-2-2--------|
|-3--3--3-3-3---3--3-3-3--3-3-3--------------0--0-0--0-0-0-0--------|

|-3--3--3-3-3---3--3-3-3--3-3-3--2-2-2-3-3------------------------3-|
|-3--3--3-3-3---3--3-3-3--3-3-3--3-3-3-3-3--1---------------------3-|
|-5--5--5-5-5---0--0-0-0--0-0-0--2-2-2-2-2--0-------0-2p0---0-----0-|
|-5--5--5-5-5---0--0-0-0--0-0-0-------------2----0h2------2---2p0-0-|
|-3--3--3-3-3---0--0-0-0--0-0-0-------------3---------------------0-|
|-3--3--3-3-3---3--3-3-3--3-3-3-----------------------------------3-|


Once again, I might've made some mistakes, so Email me at rickenbackerazn@yahoo.com if 
see anything major, or have questions.
Related for Hybrid Rainbow tab