Song name
# A B C D E F G H I J K L M N O P Q R S T U V W X Y Z

Pillows - Girls Dont Cry tab

Girls Don't Cry
The Pillows
 tabbed : _KeitarO_


e|-0h1-0--------0----0--------3--0h1-0--------0----0--------3-----------|
B|-------1-1h3----1----1----1----------1-1h3----1----1----0-------------|
G|-----------------------2-----------------------------0----------------| *Do it 7 times*
D|----------------------------------------------------------------------|
A|----------------------------------------------------------------------|
E|----------------------------------------------------------------------|



e|-0h1-0--------0----0--------3--0h1-0--------0----0--------3-------3---|
B|-------1-1h3----1----1----1----------1-1h3----1----1----0---0---0---0-|
G|-----------------------2-----------------------------0--------0-------|
D|----------------------------------------------------------------------|
A|----------------------------------------------------------------------|
E|----------------------------------------------------------------------|



e|---5--5---5----5--5---5------8--11--8----|
B|-6------6----8------8----10:-------------|
G|-7------7----9------9----10:-------------|
D|-----------------------------------------|
A|-----------------------------------------|
E|-----------------------------------------|

C-Am-F - G

Dm - Em7 - F - Fm


C - ---------Am
Dare ni iwasete mo 
F ------------ G
akumy�takai kanojo
C - --Am - --F ---- G
hade na EPISODE o mi ni matotte

C - ---------Am
uwasa to aruite 
F ------------ G
nakama to hanarete
C - --Am - --F ---- G
hitoribocchi de kakk�ii de



C - ----------Am - --------F ---- ------G
boku wa zutto anata ni hikareteiru
C - -----------Am ----------F --------------- G
kamawanaize doko de nante iwaretete mo

Dm - ----------Em7 --------------- F 
KISS shite gyutto dakishimetai
----- Fm
Yey yey yey yey yey

Verse
C - ---------Am
Kanojo no kokoro 
F ------------ G
o no zoite mitai na
C ----- --Am - --------F------- ---- G
yoru no CURTAIN no sukima o neratte

C - ----------Am - --------F ---- ------G
yume ni sotto shinobi komeru mono nara
C - -----------Am ----------F --------------- G
kaze ni natte soba de mimamoritai kedo

Dm - ----------Em7 --------------- F
daij�bu da yo tte warau kana
---Fm
Yey yey yey yey yey


-------------------------------------------------------------------------------------------------------
Different Intro

e:|----------------------------------------------------7----|
b:|--9-10-9----------------12---9-10-9----------------------|
g:|---------9--11--9--8---8------------9--11--9--4----4-----|
d:|---------------------------------------------------------|
a:|---------------------------------------------------------|
E:|---------------------------------------------------------|
Tap to rate this tab
 
# A B C D E F G H I J K L M N O P Q R S T U V W X Y Z