Song name
# A B C D E F G H I J K L M N O P Q R S T U V W X Y Z

Pillows - We Have A Theme Song tab

we have a themesong
by the pillows
tabbed by,Mike Cortez
this is an old song by the pillows,it's the first one i heard from the pillows
back in the day,so i figured i tab it out for everyone to enjoy.^-^
intro:(do the intro slowly..okay)
e:-5-5-5-5-5-1-1-1-5-5-5-5-|-5-5-5-5-5-1-1-1-5-5-5-5-|
b:-4-4-4-4-4-1-1-1-5-5-5-5-|-4-4-4-4-4-1-1-1-5-5-5-5-|
g:-5-5-5-5-5-2-2-2-4-4-4-4-|-5-5-5-5-5-2-2-2-4-4-4-4-|
d:-5-5-5-5-5-3-3-3-5-5-5-5-|-5-5-5-5-5-3-3-3-5-5-5-5-|
a:-3-3-3-3-3-3-3-3-5-5-5-5-|-3-3-3-3-3-3-3-3-5-5-5-5-|
E:-----------1-1-1-3-3-3-3-|-----------1-1-1-3-3-3-3-|

e:-5-5-5-5-5-1-1-1-1-1-1-1-6-6-6-6-6-------------|
b:-4-4-4-4-4-1-1-1-1-1-1-1-6-6-6-6-6-------------|
g:-5-5-5-5-5-2-2-2-2-2-2-2-5-5-5-5-5-------------|
d:-5-5-5-5-5-3-3-3-3-3-3-3-6-6-6-6-6-------0-3b~-|
a:-3-3-3-3-3-3-3-3-3-3-3-3-6-6-6-6-6----2-3------|
E:-----------1-1-1-1-1-1-1-4-4-4-4-4---3---------|

verses:
e:---------------------------|
b:---------------------------|
g:-5-5-5-5-5-5---------------|
d:-5-5-5-5-5-5-3-3-3-3-3-3-5-|
a:-3-3-3-3-3-3-3-3-3-3-3-3-5-|
E:-------------1-1-1-1-1-1-3-|
prechorus:
e:----------------------------------------------|
b:----------------------------------------------|
g:-5-5-5-5-5-5----------------------------------|
d:-5-5-5-5-5-5-3-3-3-3-3-3-6-6-6-6-6------0-3b~-|
a:-3-3-3-3-3-3-3-3-3-3-3-3-6-6-6-6-6---2-3------|
E:-------------1-1-1-1-1-1-4-4-4-4-4--3---------|
chorus:
e:---------------------------------------------------------------|----------
b:---------------------------------------------------------------|----------
g:-----------2-2-2-2-2-2-----------5-5-5-5-5-7-7-7-7-7-----------|-7-7-7----
d:-3-3-3-3-3-2-2-2-2-2-2-5-5-5-5-5-5-5-5-5-5-7-7-7-7-7-5-5-5-5-5-|-7-7-7-5-5
a:-3-3-3-3-3-0-0-0-0-0-0-5-5-5-5-5-3-3-3-3-3-5-5-5-5-5-5-5-5-5-5-|-5-5-5-5-3
E:-1-1-1-1-1-------------3-3-3-3-3---------------------3-3-3-3-3-|-------3-3
outro:
e:------------------------------------|
b:------------------------------------|
g:-5-5-5-5-5--------------------------|
d:-5-5-5-5-5-3-3-3-3-3-5-5-5-5-5------|
a:-3-3-3-3-3-3-3-3-3-3-5-5-5-5-5------|
E:-----------1-1-1-1-1-3-3-3-3-3-(3x)-|

e:-----------------------------------------5:-|
b:-----------------------------------------4:-|
g:-5-5-5-5-5-------------------------------5:-|
d:-5-5-5-5-5-3-3-3-3-3-6-6-6-6-6-----0-3b~-5:-|
a:-3-3-3-3-3-3-3-3-3-3-6-6-6-6-6--2-3------3:-|
e:-----------1-1-1-1-1-4-4-4-4-4-3------------|
there it is a instant classic...
i'll be doing more tabs for the pillows..
stick around for more.
oh! and enjoy life and ask yourself...."is life delicious?"
-mike
Tap to rate this tab
# A B C D E F G H I J K L M N O P Q R S T U V W X Y Z