Song name
# A B C D E F G H I J K L M N O P Q R S T U V W X Y Z

Pillows - Stalker Acoustic tab

The Pillows - Stalker (Please mr. lostman)
Tab by James Henry - dante211
E-Mail: neo_157@hotmail.com
the acoustic version is pretty much the same as the normal one except the acoustic
doesnt play some of the riffs from the original, and some of the riffs are played
differently. anyway this was my first tab, and im pretty sure it sounds like this,
but feel free to email me if you have any questions about it. the song is played
in this order:

Standard tuning (EADGBe)

intro
---------------------| x4
---------------------|
---------------------|
--5---5--8-8-8-8-8-8-|
--5---5--8-8-8-8-8-8-|
0-3-0-3--6-6-6-6-6-6-|

riff 1
----------------------------------------------------------------------| x2
----------------------------------------------------------------------|
-------------------6-6-6-6-6-6-6-6------------------------------------|
-5-5--8-8-8-8-8-8--6-6-6-6-6-6-6-6--5-5--8-8-8-8-8-8--3-3-3-3-3-3-3-3-|
-5-5--8-8-8-8-8-8--4-4-4-4-4-4-4-4--5-5--8-8-8-8-8-8--3-3-3-3-3-3-3-3-|
-3-3--6-6-6-6-6-6-------------------3-3--6-6-6-6-6-6--1-1-1-1-1-1-1-1-|

riff 2
----------------------------------------------------------------------|
----------------------------------------------------------------------|
-6-6-6-6-6-6-6-6------------------------------------5-5-5-5-5-5-5-5---|
-6-6-6-6-6-6-6-6--5-5-5-5-5-5-5-5--3-3-3-3-3-3-3-3--5-5-5-5-5-5-5-5---|
-4-4-4-4-4-4-4-4--5-5-5-5-5-5-5-5--3-3-3-3-3-3-3-3--3-3-3-3-3-3-3-3---|
------------------3-3-3-3-3-3-3-3--1-1-1-1-1-1-1-1--------------------|

riff 3
----------------------------------------------------------------------|
----------------------------------------------------------------------|
-6-6-6-6-6-6-6-6---------------------------------------7--7--7-777-7--|
-6-6-6-6-6-6-6-6--5-5-5-5-5-5-5-5----3--3--3-333-3-----7--7--7-777-7--|
-4-4-4-4-4-4-4-4--5-5-5-5-5-5-5-5----3--3--3-333-3-----5--5--5-555-5--|
------------------3-3-3-3-3-3-3-3----1--1--1-111-1--------------------|

riff 4
-----------------------------|
-----------------------------|
-12-13-12----14-15-14----16~-|
----------13----------15-----|
-----------------------------|
-----------------------------|

riff 1
----------------------------------------------------------------------| x2
----------------------------------------------------------------------|
-------------------6-6-6-6-6-6-6-6------------------------------------|
-5-5--8-8-8-8-8-8--6-6-6-6-6-6-6-6--5-5--8-8-8-8-8-8--3-3-3-3-3-3-3-3-|
-5-5--8-8-8-8-8-8--4-4-4-4-4-4-4-4--5-5--8-8-8-8-8-8--3-3-3-3-3-3-3-3-|
-3-3--6-6-6-6-6-6-------------------3-3--6-6-6-6-6-6--1-1-1-1-1-1-1-1-|

riff 2
----------------------------------------------------------------------|
----------------------------------------------------------------------|
-6-6-6-6-6-6-6-6------------------------------------5-5-5-5-5-5-5-5---|
-6-6-6-6-6-6-6-6--5-5-5-5-5-5-5-5--3-3-3-3-3-3-3-3--5-5-5-5-5-5-5-5---|
-4-4-4-4-4-4-4-4--5-5-5-5-5-5-5-5--3-3-3-3-3-3-3-3--3-3-3-3-3-3-3-3---|
------------------3-3-3-3-3-3-3-3--1-1-1-1-1-1-1-1--------------------|

riff 3
----------------------------------------------------------------------|
----------------------------------------------------------------------|
-6-6-6-6-6-6-6-6---------------------------------------7--7--7-777-7--|
-6-6-6-6-6-6-6-6--5-5-5-5-5-5-5-5----3--3--3-333-3-----7--7--7-777-7--|
-4-4-4-4-4-4-4-4--5-5-5-5-5-5-5-5----3--3--3-333-3-----5--5--5-555-5--|
------------------3-3-3-3-3-3-3-3----1--1--1-111-1--------------------|

riff 4
-----------------------------|
-----------------------------|
-12-13-12----14-15-14----16~-|
----------13----------15-----|
-----------------------------|
-----------------------------|

Outro
-----------------------------------------|
-----------------------------------------|
-------------------6-6-6-6-6-6-6-6-------|
-5-5--8-8-8-8-8-8--6-6-6-6-6-6-6-6--5-5--|
-5-5--8-8-8-8-8-8--4-4-4-4-4-4-4-4--5-5--|
-3-3--6-6-6-6-6-6-------------------3-3--|

thats it! have fun with it!
Tap to rate this tab
# A B C D E F G H I J K L M N O P Q R S T U V W X Y Z