Song name
# A B C D E F G H I J K L M N O P Q R S T U V W X Y Z

Pillows - Revers Edge tab

this song begins with some piano and then is joined 
with acoustic guitar tabbed below:

start chorus:

--------------------------------------------------|
-8-10-10s12-12-10s8-8-8h10--6-6-8s10-10-8-10-8----|
--------------------------------------------------| (x2)
--------------------------------------------------|
--------------------------------------------------|
--------------------------------------------------|

-10-12-12-10-15-----------------------------------|
---------------12--8-10-12-12-10-12-8-------------|
--------------------------------------------------|
--------------------------------------------------|
--------------------------------------------------|
--------------------------------------------------|

---------------------------------------------------|
-8-10-12-12-10s8-8-8h10--6-6-8s10-10-8-8h10-8------|
---------------------------------------------------|
---------------------------------------------------|
---------------------------------------------------|
---------------------------------------------------|

End chorus-

repeat chorus.(without slide in the 10s12 at the very start - just 12)

then

-10p8h10-----------------------------12-13-12-10----|
--------8s6-6s4-4-4s2-2--8p6-10-12-8----------------|
----------------------------------------------------|
----------------------------------------------------|
----------------------------------------------------|
----------------------------------------------------|

-------8------------------------------------------|
-8-8s10--8-8s10~-------------------12-10-8-6-8s10~|
-----------------7h8p7-5-3-5-6-6s10---------------|
--------------------------------------------------|
--------------------------------------------------|
--------------------------------------------------|

-chorus-(x2) 

then:
---------------------10p8-10-7-5----------------|
-6-6-8s10-10-8-10-8-----------------------------|
---------------------------------9-9s7-7-5------|
------------------------------------------------|
------------------------------------------------|
------------------------------------------------|

------------------------------------------------|
-/8-8-8-10-8-10--12-10-8-10---------------------|
---------------------------12------------[10]---|
------------------------------------------------|
------------------------------------------------|
------------------------------------------------|
Tap to rate this tab
 
# A B C D E F G H I J K L M N O P Q R S T U V W X Y Z