Guitaretab - guitar tabs
Song name
# A B C D E F G H I J K L M N O P Q R S T U V W X Y Z

Pillows - Sleepy Head tab

The Pillows  Sleepy Head
Standard Tuning
Tabbed by K-Dog

I wanted to tab this because it is one of my favorite songs by the pillows. Its very
simple, but nice.  Only trouble is, this is my first tab, and I know this tab is far from
I wanted to make it because I was pissed there were no other tabs out for it. I thought 
could put out this, and if people saw it, they could help me make improvements to it, or
might make there own even better tab. So yea, this is kind of it. I highly suggest you 
to the song while trying this.


If you wanted to play the baseline on guitar, this sounds kinda like it.

e-----------------------------------------|
B-----------------------------------------|
G-----------------------------------------|
D-----------------------------------------|
A-----------------------------------------|
E-5\0-2-3-2-0-3-5-------------------------|

e-------------------------------------------------------------------|
B-------------------------------------------------------------------|
G-------------6-7-6-7-6-------------6-7-6/9-------------------------|
D-777-777-777-7-7-7-7-5-777-777-777-7-7-7/9-------------------------|
A-777-777-777-5-5-5-5-5-777-777-777-5-5-5-x-------------------------|
E-555-455-455-5-5-5-5-5-555-455-455-5-5-5-x-------------------------|

e-------------------------------------------------------------------|
B-------------------------------------------------------------------|
G-------------6-7-6-7-6-------------6-7-6/9-------------------------|
D-777-777-777-7-7-7-7-5-777-777-777-7-7-7/9-------------------------|
A-777-777-777-5-5-5-5-5-777-777-777-5-5-5-x-------------------------|
E-555-455-455-5-5-5-5-5-555-455-455-5-5-5-x-------------------------|

e-------------------------------------------------------------------|
B-------------------------------------------------------------------|
G-----------6-7-6-7-6-----------6-7-6-6-7/9-------------------------|
D-777777777-0-7-7-7-7-777777777-0-7-7-7-7/9-------------------------|
A-777777777-----------777777777-------------------------------------|
E-------------------------------------------------------------------|
[ Tab from: http://www.guitaretab.com/p/pillows/81585.html ]
e---------------------------------------------------------------------|
B---------------------------------------------------------------------|
G-----------6-7-6-7-6---------------------6-7-6-7-6-------------------|
D-777777777-0-7-7-7-7-777777777-777777777-0-7-7-7-7-7-----------------|
A-777777777-----------777777777-777777777-----------7-----------------|
E---------------------------------------------------------------------|

e-----------------------------------------|
B-----------------------------------------|
G-----------------------------------------|
D-----------------------------------------|
A-----------------------------------------|
E-5\0-2-3-2-0-3-5-------------------------|

Strum these chords really fast

e-12-/14-15-14-------------------------------------------------------|
B-12-/14-14-14-------------------------------------------------------|
G--------------------------------------------------------------------|
D--------------------------------------------------------------------|
A--------------------------------------------------------------------|
E--------------------------------------------------------------------|
e-\12-/17-\15-\14-15-14-15-15-14-/17---------------------------------|
B-\12-/14--14--14-14-14-14-14-14--14---------------------------------|
G--------------------------------------------------------------------|
D--------------------------------------------------------------------|
A--------------------------------------------------------------------|
E--------------------------------------------------------------------|

e-------------------------------------------------------------------|
B-------------------------------------------------------------------|
G-------------6-7-6-7-6-------------6-7-6/9-------------------------|
D-777-777-777-7-7-7-7-5-777-777-777-7-7-7/9-------------------------|
A-777-777-777-5-5-5-5-5-777-777-777-5-5-5-x-------------------------|
E-555-455-455-5-5-5-5-5-555-455-455-5-5-5-x-------------------------|

e--------------------------|
B--------------------------|
G-------------6-7-6-7-6----|
D-777-777-777-7-7-7-7-5-7/-|
A-777-777-777-5-5-5-5-5-7/-|
E-555-455-455-5-5-5-5-5-5/-|

Again, its far from perfect, so if you want to give me any suggestions, talk to me

Kdog510@hotmail.com
Related for Sleepy Head tab