Song name
# A B C D E F G H I J K L M N O P Q R S T U V W X Y Z

Pillows - March Of The God tab

artist: the pillows
album: MY FOOT
song: March of the GOD


This was oringinally tabbed by overburn...
I just thought i'd move it here :D



**Sawao's main riff (SMR):

e|---------------------------------|---------------------------------|
B|-0-0-0---0---0-0---0-0---0---0---|-0-0-0---0---0-0---0-0---0---0---|
G|-2-2-2---2---2-2---2-2---2---2---|-2-2-2---2---2-2---2-2---2---2---|
D|-1-1-1---1---1-2---2-2---2---2---|-1-1-1---1---1-2---2-2---2---2---|
A|-0-0-0---0---0-0---0-0---0---0---|-0-0-0---0---0-0---0-0---0---0---|
E|---------------------------------|---------------------------------|
   D U D U D U D U D U D U D U D U | D U D U D U D U D U D U D U D U | <- picking


e|---------------------------------|---------------------------------|
B|-0-0-0---0---0-0---0-0---0---0---|-0-0-0---0---0-0---0-0---0---0---|
G|-1-1-1---1---1-1---1-1---1---1---|-1-1-1---1---1-1---1-1---1---1---|
D|-2-2-2---2---2-2---2-2---2---2---|-2-2-2---2---2-2---2-2---2---2---|
A|-0-0-0---0---0-2---2-2---2---2---|-0-0-0---0---0-2---2-2---2---2---|
E|---------------------------------|---------------------------------|
   D U D U D U D U D U D U D U D U | D U D U D U D U D U D U D U D U | <- picking


(Introduction)

e|-------------------------------------------------|
B|-00000-------00000-------00000-------00000-------|
G|-22222-------22222-------11111-------11111-------| *sawao (left)
D|-11111-------11111-------22222-------22222-------|
A|-00000-------00000-------00000-------00000-------|
E|-------------------------------------------------|
 |                                                 |
e|-------------------------------------------------|
B|-------00000-------00000-------00000-------00000-|
G|-------22222-------22222-------11111-------11111-| *manabe (right)
D|-------22222-------22222-------22222-------22222-|
A|-------00000-------00000-------22222-------22222-|
E|-------------------------------------------------|


(Chorus) 

 sawao: SMR
manabe:

e|----4---4-7-4---4------|----4---4-7-4---4------|
B|------7-------7---7-5--|------7-------7---7-5--|
G|-/6--------------------|--4--------------------|
D|-----------------------|-----------------------|
A|-----------------------|-----------------------|
E|-----------------------|-----------------------|

e|----4---4-7-4---4------|----4------------------|
B|------7-------7---7-5--|------7-5--------------|
G|-/6--------------------|--4-------4------------|
D|-----------------------|-----------------------|
A|-----------------------|-----------------------|
E|-----------------------|-----------------------|



(Bridge)

e|---------------------------------------------|
B|---------------------------------------------|
G|---------------------------------------------| *sawao (left)
D|-4b6b4-2---4-4b6b4-2-------------------------|
A|----------------------/4-4-4-2-6--/4-4-4-2-6-|
E|---------------------------------------------|
 |                                             |
e|-0-----0---0-0-----0-------------------------|
B|-4b5b4-2---4-4b5b4-2---0-0-0-0-0---0-0-0-0-0-|
G|----------------------/2-2-2-1-4--/2-2-2-1-4-| *manabe (right)
D|---------------------------------------------|
A|---------------------------------------------|
E|---------------------------------------------|


e|---------------------------------------------|
B|---------------------------------------------|
G|---------------------------------------------| *sawao (left)
D|-4b6b4-2---4-4b6b4-2-------------------------|
A|----------------------/4-4-4-2-6--/7-6-7-6---|
E|-------------------------------------------7-|
 |                                             |
e|-0-----0---0-0-----0-------------------------|
B|-4b5b4-2---4-4b5b4-2---0-0-0-0-0-------------|
G|----------------------/2-2-2-1-4--/2-1-2-1---| *manabe (right)
D|-------------------------------------------2-|
A|---------------------------------------------|
E|---------------------------------------------|



(Ending)

 sawao: SMR
manabe:

-picking not represented. these are just the chords. 
e|---------------------------------------------------|
B|---------------------------------------------------|
G|-8-9---8-9-11---8-9---8-9-11---8-9---8-9-11-/13\9--|
D|---------------------------------------------------|
A|-6-7---6-7-9----6-7---6-7-9----6-7---6-7-9--/11\7--|
E|---------------------------------------------------|


e|---------------------------------------------------|
B|---------------------------------------------------|
G|-8-9---8-9-11---8-9---8-9-11---8-9---8-9-11-/13/16-|
D|---------------------------------------------------|
A|-6-7---6-7-9----6-7---6-7-9----6-7---6-7-9--/11/14-|
E|---------------------------------------------------|

Tap to rate this tab
 
# A B C D E F G H I J K L M N O P Q R S T U V W X Y Z