Song name
# A B C D E F G H I J K L M N O P Q R S T U V W X Y Z

Pilot Speed - Put The Phone Down tab

-------------------------------------------------------------------------------
		             "Put the Phone Down" - Pilot Speed
-------------------------------------------------------------------------------
Tabbed by:Yours Truly
Email:

Tuning:Standard

e|--------------------------------------------------------------------------|
B|--------------------------------------------------------------------------|
G|--------------------------------------------------------------------------|
D|--------------------------------------------------------------------------|
A|-----------------------------------6--------------------------------------|
E|---6----10----------8-----10-----------6----------------------------------|

haven't figured out chords but this seems to work for now


e|------------------------------------------------------------------------------|
B|------------------------------------------------------------------------------|
G|-----------8------------------------------------------------------------------|
D|--8--------8------------------------------------------------------------------|
A|--8--------6------------------------------------------------------------------|
E|--6---------------------------------------------------------------------------|
Tap to rate this tab
# A B C D E F G H I J K L M N O P Q R S T U V W X Y Z