Song name
# A B C D E F G H I J K L M N O P Q R S T U V W X Y Z

Pilot - Mike tab

-------------------------------------------------------------------------------
			     Mike - Pilot
-------------------------------------------------------------------------------
Tabbed by: Bob Louis
Email: louisvilletuckers@gmail.com

I decided to tab the entire song instead of just the intro... So im takin the intro from my intro tab...

Tuning: Drop C (C D B E G C)

Guitar #1 (Dan)
Figure out the strumming
c|---1--------0--------0--------0---------------xxxx----4--4-----------------|
G|---3--------1--------0--------0---------------xxxx-----------------5-------|
E|---2--------2--------0--------0---------------xxxx---------4--4h5----------|
B|---0--------2--------2--------0---------------xxxx-------------------------|
F|---0---x5---0---x5---2--------2---------------xxxx-------------------------|
C|---------------------0---x5---3---x5---(x2)---xxxx-------------------------|

Guitar #2 (Ryan)
c|---5--------xx---3--------xx---5--------xx---7---------------xxxx--3-4-5---|
G|---5--------xx---3--------xx---5--------xx---7---------------xxxx--3-4-5---|
E|---6--------xx---4--------xx---6--------xx---8---------------xxxx--4-5-6---|
B|---7--------xx---5--------xx---7--------xx---9---------------xxxx--5-6-7---|
F|---7--------xx---5--------xx---7--------xx---9---------------xxxx--5-6-7---|
C|---5---x3---xx---3---x3---xx---5---x3---xx---7---x3---(x2)---xxxx--3-4-5---|

Guitar #3 (Joe)
Plays same as guitar 2 for first part but for 2nd part plays
c|---9--------xx---7--------xx---9--------xx---12--------xxxx--3-4-5---------|
G|---9--------xx---7--------xx---9--------xx---12--------xxxx--3-4-5---------|
E|--10--------xx---8--------xx--10--------xx---13--------xxxx--4-5-6---------|
B|--11--------xx---9--------xx--11--------xx---14--------xxxx--5-6-7---------|
F|--11--------xx---9--------xx--11--------xx---14--------xxxx--5-6-7---------|
C|---9---x3---xx---7---x3---xx---9---x3---xx---12---x3---xxxx--3-4-5---------|


Verse 1
All guitars play this
c|-----------------------------------------------------------------------------|
G|-----------------------------------------------------------------------------|
E|-----------------------------------------------------------------------------|
B|---666666-----444444-----2222222222------------------------------------------|
F|---666666-----444444-----2222222222------------------------------------------|
C|---444444-----222222-----0000000000----(x3)----------------------------------|
Pm   ......     ......     ..........

Prechorus
Guitar 1 only & delay
Watch the timing
c|---3----------------------------0------------------------------------------|
G|-----5------5-----------1-------0------------------------------------------|
E|---------4------------2---------0------------------------------------------|
B|--------------------5------------------------------------------------------|
F|-----------------5---------------------------------------------------------|
C|---------------------------------------------------------------------------|

Chorus
Guitar 1
Starts after the 4 mute notes from 2 & 3
Watch the timing
c|----7~----------10-8~--------------------------4-3-2-1-0-------------------
|
G|--------------------------------------------1------------------------------|
E|--------4-5-------------4-6-4-8--5-4--12--3--------------------------------|
B|---------------------------------------------------------------------------|
F|---------------------------------------------------------------------------|
C|---------------------------------------------------------------------------|

Guitar 2 & 3
c|---------------------------------------------------------------------------|
G|---------------------------------------------------------------------------|
E|---------------------------------------------------------------------------|
B|-xxxx--6-6-6-6\4-4-4-4\2-2-2-2-2-2-2-2/------------------------------------|
F|-xxxx--6-6-6-6\4-4-4-4\2-2-2-2-2-2-2-2/------------------------------------|
C|-xxxx--4-4-4-4\2-2-2-2\0-0-0-0-0-0-0-0/----(x2)----------------------------|

Verse 2
Yea, its the same as verse 1 but i put it for the sake of it
c|-----------------------------------------------------------------------------|
G|-----------------------------------------------------------------------------|
E|-----------------------------------------------------------------------------|
B|---666666-----444444-----2222222222------------------------------------------|
F|---666666-----444444-----2222222222------------------------------------------|
C|---444444-----222222-----0000000000----(x3)----------------------------------|
Pm   ......     ......     ..........

Bridge
Guitar 1
c|-----------7---------------------------------------------------------------|
G|--------------7-----------5------------------------------------------------|
E|-----------------4-----------5--------4------------------------------------|
B|--------------------------------2--------4-------3-------------------------|
F|--------------------------------------------2-------3----------------------|
C|-------------------------------------------------------1------(x2)---------|

Guitar 2 & 3
Watch the timing with guitar 1
c|----------------------------------------------------------------------------------------------|
G|----------------------------------------------------------------------------------------------|
E|----------------------------------------------------------------------------------------------|
B|-----66------55------44------33---------------------------------------------------------------|
F|-----66------55------44------33---------------------------------------------------------------|
C|-----44------33------22------11-----(x2)-----------------------------------Pm     ..      .. -|      ..

Breakdown
Guitar 1(10s and 12s)
c|--1010--10h12p10--1010--10h12p10--------|-1012101210121012101210121012--|--|
G|----------------------------------------|-------------------------------|--|
E|----------------------------------------|-------------------------------|--|
B|----------------------------------------|-------------------------------|--|
F|----------------------------------------|-------------------------------|--|
C|-----------------------------------12\0-|--------------------x3---------|--|

Guitar 2 & 3
c|---------------------------------------------------------------------------|
G|---------------------------------------------------------------------------|
E|---------------------------------------------------------------------------|
B|----6--6--6--6--6--4--4--4--4--4--2--2--2--2--2--2---2---2-----------------|
F|----6--6--6--6--6--4--4--4--4--4--2--2--2--2--2--2---2---2-----------------|
C|----4--4--4--4--4--2--2--2--2--2--0--0--0--0--0--0---0---0-----------------|

Outro
All guitars
c|---------------------------------------------------------------------------|
G|---------------------------------------------------------------------------|
E|---------------------------------------------------------------------------|
B|-----99--------77--------55-----2<-----------------------------------------|
F|-----99--------77--------55-----2<-----------------------------------------|
C|-----77--------55--------33-----0<-----------------------------------------|

| /  slide up
| \  slide down
| h  hammer-on
| p  pull-off
| ~  vibrato
| +  harmonic
| x  Mute note
| .  Palm mute
| <  Ring out

Order:

Verse 1
Prechorus
Chorus
Verse 2
Prechorus
Chorus
Breakdown
Bridge
Prechorus
Chorus x3
Outro
=============================================================================
Tap to rate this tab
# A B C D E F G H I J K L M N O P Q R S T U V W X Y Z