Song name
# A B C D E F G H I J K L M N O P Q R S T U V W X Y Z

Pilot - Another Day To Die tab

Help us improve GuitareTab! Take a short survey!
-------------------------------------------------------------------------------
			     Another Day To Die - Pilot
-------------------------------------------------------------------------------
Tabbed by:Bob Louis
Email: louisvilletuckers@gmail.com

Tuning: Standard

Im too lazy to tab the entire song... So heres the intro... Enjoy

Guitar 1
e|------------------------------7---10~----------------------12-12-12-12-12-----|
B|------------------------6--5----8-----6---0---2~------------------------------|
G|-----3--6--4--2------------------------------------5555-5*--------------------|
D|---------------------------------------------------5555-5*--------------------|
A|---------------------------------------------------3333-3*--------------------|
E|------------------------------------------------------------------------------|
Pm                                                   ....     .  .  .  .  .

e|---12+---------------------------------------------------------------------|
B|---------------------------------------------------------------------------|
G|---------------------------------------------------------------------------|
D|---------12\0--------------------------------------------------------------|
A|---------12\0--------------------------------------------------------------|
E|---------12\0--------------------------------------------------------------|

Guitar 2 & 3
e|-----------------------------------------------------------------------------|
B|-----------------------------------------------------------------------------|
G|-----------------------------------------------------------------------------|
D|---2-2-2-2-2-2-2-2-4-4-4-4-4-4-4-4-5555-5*-----7-7-7-7-7-7----12/0-----------|
A|---2-2-2-2-2-2-2-2-4-4-4-4-4-4-4-4-5555-5*-----7-7-7-7-7-7----12/0-----------|
E|---0-0-0-0-0-0-0-0-2-2-2-2-2-2-2-2-3333-3*-----5-5-5-5-5-5----12/0-----------|
Pm                                   ....

| /  slide up
| \  slide down
| h  hammer-on
| p  pull-off
| ~  vibrato
| +  harmonic
| x  Mute note
| .  Palm Mute
| *  Let Ring Out
===============================================================================
Related for Another Day To Die tab