Song name
# A B C D E F G H I J K L M N O P Q R S T U V W X Y Z

Pilot - Decomposed tab

-------------------------------------------------------------------------------
			     Decomposed - Pilot
-------------------------------------------------------------------------------
Tabbed by:Bob Louis
Email:louisvilletuckers@gmail.com

Tuning: Drop D

My favorite song

Intro
d|---------------------|-----------|
A|---------------------|-----------|
F|---------------------|-----------|
C|---------------------|---xx-xx---|
G|---0-0-0---12<-------|---xx-xx---|
D|---0-0-0---12<---x8--|---xx-xx---|

Line 1
"Here I am..."
d|--------------------------------------------------|
A|--------------------------------------------------|
F|--------------------------------------------------|
C|---22222222444444446666666644444444---2-2-2-2-----|
G|---22222222444444446666666644444444---2-2-2-2-----|
D|---00000000222222224444444422222222---0-0-0-0-----| x2
Pm   ................................

Line 2
1st time
"If I'm open..."
2nd time
"Dim heart..."
d|------------------------------|------------------|
A|------------------------------|------------------|
F|-------------------77777777---|------------------|
C|---444444446666666677777777---|---44444444-------|
G|---444444446666666655557777---|---44444444-------|
D|---2222222244444444----5555-x2|---22222222-------|
Pm   ........................       ........

Line 3
1st time
"Cause we're losing..."
2nd time
"Cause she thinks..." 10's
d|---------------------------------------------------------------------------|
A|---------------------------------------------------------------------------|
F|-------------------------------------------99999999777777777777777777777---|
C|---444444446666666688888888101010101010101099999999777777777777777777777---|
G|---444444446666666688888888101010101010101077777777555555555555555555555---|
D|---2222222244444444666666668-8-8-8-8-8-8-8---------------------------------|
Pm   ......................... . . . . . . . ........................

Line 4
"A messed up heart..."
d|---0~----------------------------------------------------------------------|
A|---0~----------------------------------------------------------------------|
F|---2~----------------------------------------------------------------------|
C|---2~---22222222222222222222222222222-------------------------------------------------------------------|
G|---0~---22222222222222222222222222222-------------------------------------------------------------------|
D|---0~---00000000000000000000000000000-------------------------------------------------------------------|
Pm        ................

Line 5
1st time
"My spirit just arose..."
2nd time
"I might wreck the show..."
d|---------------------------------------------------------------------------|
A|---------------------------------------------------------------------------|
F|---44---5---------------------77---5---------------------------------------|
C|---44-4-5-6-6666666688888888--77-4-5-6-6-6--8-9-----444---4-4-4---xx-xx----|
G|---22-4-3-6-6666666688888888--55-4-3-6-6-6--8-9-----444---4-4-4---xx-xx----|
D|------2---4-4444444466666666-----2---4-4-4--6-7-----222---2-2-2---xx-xx----|

Line 6
"Na na na..."
d|-----------------------|
A|-----------------------|
F|-----------------------|
C|---444-2-6--6-22-4-----|
G|---444-2-6--6-22-4-----|
D|---222-0-4--4-00-2-----| x3

Line 6
"Theres nothing you can do..."
d|-----------------|-----------|
A|-----------------|-----------|
F|---77---5--------|-----------|
C|---77-4-5-6------|-66-8-9~---|
G|---55-4-3-6------|-66-8-9~---|
D|------2---4--(x3)|-44-6-7~---|

Line 7
"Oh Yea..."
d|-----------------------|
A|-----------------------|
F|---4---666---9---------|
C|---4---666-8-9---------|
G|---2---444-8-7---12\5--|
D|-----------6-----12\5--|

Outro
d|--------------|
A|--------------|
F|---444--------|
C|---444-4-9~---|
G|---222-4-9~---|
D|-------2-7~---|

Order:
Intro
Line 1
Line 2
Line 3
Line 4
Line 5
Line 6
Line 1
Line 2
Line 3
Line 4
Line 5
Line 6
Line 7 x2
Line 8
Line 6
Outro

| \  slide down
| <  vibrato
| x  Mute note
| ~  Let ring
===============================================================================
Tap to rate this tab
# A B C D E F G H I J K L M N O P Q R S T U V W X Y Z