Guitaretab - guitar tabs
Song name
# A B C D E F G H I J K L M N O P Q R S T U V W X Y Z
Home / P / Pilot / Each Day tab

Pilot - Each Day tab

-------------------------------------------------------------------------------
			     Each Day - Pilot
-------------------------------------------------------------------------------
Tabbed by: Bob Louis
Email: louisvilletucks@gmail.com

Tuning: Standard (E A D G B e)

I put it all in order so you shouldnt have any problems

Intro x2
e|---------------------------------------------------------------------------|
B|---------------------------------------------------------------------------|
G|---------------------------------------------------------------------------|
D|---22222222-10-10-10-10-99997777777777777777-------------------------------|
A|---22222222-10-10-10-10-99997777777777777777-------------------------------|
E|---00000000--8--8--8--8-77775555555555555555-------------------------------|

Pause and wait till "know"
Verse 1
e|-----------------------------------------------------------|---------------|
B|-----------------------------------------------------------|---------------|
G|-----------------------------------------------------------|---------------|
D|---2-2222222---9/10-9-99999999-7-77777777-2-22222222-------|---2-22222222--|
A|---2-2222222---9/10-9-99999999-7-77777777-2-22222222-------|---2-22222222--|
E|---0-0000000---7/-8-7-77777777-5-55555555-0-00000000--x2---|---0-00000000--|
Pm     .......          ........   ........   ........           . ........

Prechorus
e|---------------------------------------------------------------------------|
B|---------------------------------------------------------------------------|
G|---------------------------------------------------------------------------|
D|---2~---4~---10-10-9-9---2~---4444666677779--------------------------------|
A|---2~---4~---10-10-9-9---2~---4444666677779--------------------------------|
E|---0~---2~----8--8-7-7---0~---2222444455557--------------------------------|

Pause and wait till "day"
Chorus
e|---------------------------------------------------------------------|
B|---------------------------------------------------------------------|
G|---------------------------------------------------------------------|
D|---22-10-10-99-7---2--10-9---5\4-4---2--10-10-99-7---222-10-10-99-4--|
A|---22-10-10-99-7---2--10-9---5\4-4---2--10-10-99-7---222-10-10-99-4--|
E|---00--8--8-77-5---0---8-7---3\2-2---0---8--8-77-5---000--8--8-77-2--|

Post Chorus
e|---------------------------------------------------------------------------|
B|---------------------------------------------------------------------------|
G|---------------------------------------------------------------------------|
D|---xxxx-xxxx---22222222-10-10-10-10-99997777777777777777-------------------|
A|---xxxx-xxxx---22222222-10-10-10-10-99997777777777777777-------------------|
E|---xxxx-xxxx---00000000--8--8--8--8-77775555555555555555-------------------|
[ Tab from: http://www.guitaretab.com/p/pilot/84885.html ]
Verse 2
e|---------------------------------------------------------------------------|
B|---------------------------------------------------------------------------|
G|---------------------------------------------------------------------------|
D|---2-2222-4-4444-3-3333-2-22222222-10-10-10-10-10-9-9999-2-22222222--------|
A|---2-2222-4-4444-3-3333-2-22222222-10-10-10-10-10-9-9999-2-22222222--------|
E|---0-0000-2-2222-1-1111-0-00000000--8--8--8--8--8-7-7777-0-00000000--------|
Pm     ....   ....   ....   ........     .  .  .  .   ....   ........

Repeat Prechorus
Repeat Chorus

Chorus*
e|--------------------------|
B|--------------------------|
G|--------------------------|
D|---2~---9~---7~---444444--|
A|---2~---9~---7~---444444--|
E|---0~---7~---5~---222222--|

Post Chorus* x2
e|---------------------------------------------------------------------------|
B|---------------------------------------------------------------------------|
G|---------------------------------------------------------------------------|
D|---2---2222---2---2222-----------------------------------------------------|
A|---2---2222---2---2222-----------------------------------------------------|
E|---0---0000---0---0000-----------------------------------------------------|
Pm       ....       ....

Breakdown
e|--------------------------------|-------|
B|--------------------------------|-------|
G|--------------------------------|-------|
D|---2-222-22-2-2---9-9-9-9-------|---2---|
A|---2-222-22-2-2---9-9-9-9-------|---2---|
E|---0-000-00-0-0---7-7-7-7---(x4)|---0---|

Repeat Chorus

Verse 3
e|---0~---0~---0~----------------------------------------------------|
B|---0~---0~---0~----------------------------------------------------|
G|---2~---0~---0~----------------------------------------------------|
D|---2~---2~---4~---22222222222222222222222222222222222222222222-2---|
A|---0~---2~---4~---22222222222222222222222222222222222222222222-2---|
E|---0~---0~---2~---00000000000000000000000000000000000000000000-0---|
Pm                  ................

Bridge
e|--------------------------------------------------|-------|
B|--------------------------------------------------|-------|
G|--------------------------------------------------|-------|
D|--------------------------------------------------|---2---|
A|--------------------------------------------------|---2---|
E|---0000000077778888777777775555555522222222---(x2)|---0---|
Pm   ........................................

Repeat Chorus x2 with this synth lead part (not 1's and 2's, 12's)
e|-------------------------------------------------------------------------------|
B|---555531-3---55518p77---555531-3----555577779999---121212121212121212121212---|
G|---------2---------------------2-----------------------------------------------|
D|-------------------------------------------------------------------------------|
A|-------------------------------------------------------------------------------|
E|-------------------------------------------------------------------------------|

Outro
e|---------------------------------------------------------------------------|
B|---------------------------------------------------------------------------|
G|---------------------------------------------------------------------------|
D|---22222222--10-10-10-10-9999---22222222--10-10-99-2~----------------------|
A|---22222222--10-10-10-10-9999---22222222--10-10-99-2~----------------------|
E|---00000000---8--8--8--8-7777---00000000---8--8-77-0~----------------------|

| /  slide up
| \  slide down
| h  hammer-on
| p  pull-off
| ~  let ring out
| +  harmonic
| x  Mute note
===============================================================================
Related for Each Day tab
×
Each Day