Song name
# A B C D E F G H I J K L M N O P Q R S T U V W X Y Z

Piloti - Kada Sanjamo tab

-------------------------------------------------------------------------------
                           Piloti - Kada sanjamo
-------------------------------------------------------------------------------
Tabbed by: Boris Kremenovic
Email: v4n_p3rs13@hotmail.com
Tunning: Standard (E-A-D-G-B-E)

Note: If you find some mistakes in the tab, please report to my email


*******************************************************************************
                                     INTRO
                    (Using palm-mute technique, repeat 8 times)
*******************************************************************************
e|-----------------|
B|-----------------|
G|-7-x-7-x-7-x-7-x-|
D|-7-x-7-x-7-x-7-x-|
A|-5-5-5-5-5-5-5-5-|
E|-----------------|





*******************************************************************************
                                     VERSE - 1
                       (Vocal starts here, repeat few times)
*******************************************************************************
e|---------------------------------|
B|---------------------------------|
G|-7-x-x-7-x-x-7-x-7-x-x-7-x-x-7-x-|
D|-7-x-x-7-x-x-7-x-7-x-x-7-x-x-7-x-|
A|-5-5-5-5-5-5-5-5-5-5-5-5-5-5-5-5-|
E|---------------------------------|





*******************************************************************************
                                     VERSE - 2
                       (Where he says: "Da sanjam ovaj put")
*******************************************************************************
e|---------------------------------------------------------------|
B|---------------------------------------------------------------|
G|-7-x-x-7-x-x-7-x-7-x-x-7-x-x-7---------------------------------|
D|-7-x-x-7-x-x-7-x-7-x-x-7-x-x-7-x-9-x-x-9-x-x-9-x-9-x-x-9-x-x-x-|
A|-5-5-5-5-5-5-5-5-5-5-5-5-5-5-5-x-9-x-x-9-x-x-9-x-9-x-x-9-x-x-x-|
E|-------------------------------5-7-7-7-7-7-7-7-7-7-7-7-7-7-7-5-|





*******************************************************************************
                                     VERSE - 2
                        (Where he says: "Da sanjam ovaj put")
*******************************************************************************
e|---------------------------------------------------------------|
B|---------------------------------------------------------------|
G|-7-x-x-7-x-x-7-x-7-x-x-7-x-x-7---------------------------------|
D|-7-x-x-7-x-x-7-x-7-x-x-7-x-x-7-x-9-x-x-9-x-x-9-x-9-x-x-9-x-x-x-|
A|-5-5-5-5-5-5-5-5-5-5-5-5-5-5-5-x-9-x-x-9-x-x-9-x-9-x-x-9-x-x-x-|
E|-------------------------------5-7-7-7-7-7-7-7-7-7-7-7-7-7-7-5-|





*******************************************************************************
                                     PRE-CHORUS
                    (Where he says: "Ne znam da li je gotovo")
*******************************************************************************
e|---------------------------------------------------------------------------------|
B|---------------------------------------------------------------------------------|
G|-------------------------------------------------7-x-x-7-x-x-7-x-7-x-x-7-x-x-7-x-|
D|-7-x-x-7-x-x-7-x-5-x-x-5-x-x-5-x-7-x-x-7-x-x-7-x-7-x-x-7-x-x-7-x-7-x-x-7-x-x-7-x-|
A|-7-x-x-7-x-x-7-x-5-x-x-5-x-x-5-x-7-x-x-7-x-x-7-x-5-5-5-5-5-5-5-5-5-5-5-5-5-5-5-5-|
E|-5-5-5-5-5-5-5-5-3-3-3-3-3-3-3-3-5-5-5-5-5-5-5-5---------------------------------|





*******************************************************************************
                                     CHORUS
*******************************************************************************
e|---------------------------------------------------------------|
B|---------------------------------------------------------------|
G|-7-7-7-7-7-7-7-7-7---------------------------------------------|
D|-7-7-7-7-7-7-7-7-7-7-7-7-7-7-7-9-9-9-9-9-9-9-9/5-5-5-5-7-7-7-7-|
A|-5-5-5-5-5-5-5-5-7-7-7-7-7-7-7-9-9-9-9-9-9-9-9/5-5-5-5-7-7-7-7-|
E|-----------------5-5-5-5-5-5-5-7-7-7-7-7-7-7-7/3-3-3-3-5-5-5-5-|





*******************************************************************************
                                     SOLO
*******************************************************************************
e|-17------17------15------15-14---|
B|------15------15------15------15-|
G|---------------------------------|
D|---------------------------------|
A|---------------------------------|
E|---------------------------------|
Tap to rate this tab
 
# A B C D E F G H I J K L M N O P Q R S T U V W X Y Z