Song name
# A B C D E F G H I J K L M N O P Q R S T U V W X Y Z

Pimpadelic - Caught It From Me tab

^- hammer on

e---------------------------------------------------------|
b----------8----------------------------------------------|
g----------7--------------------987-7---------------------|
D----------6-----------------------9-987------------------|
A----------7------5--------5^7----------------------------|
E-----0-0-----5^7---7--5^7--------------------------------|

 couple times - couple times after that  let last cord ring out
e-----------------------------------------------|
b-------------8-------8----------8--------------|
g-----------7-----------7--------7--------------|
D---------6---------------6------6--------------|
A-------7-------------------7----7--------------|
E---0000----------0000--------------------------|

YEAHHHHHH YEAAHHHHH YEAHHHH HAHAHAHAH

e-----------------------------------------|
b-----------------------------------------|
g-----------------------------------------|
D-------------x-7-------------------------|
A---4-----4---x-5-------------------------|
E---2--0--2-0-x---------------------------|

go back to begining
Tap to rate this tab
 
# A B C D E F G H I J K L M N O P Q R S T U V W X Y Z