Song name
# A B C D E F G H I J K L M N O P Q R S T U V W X Y Z

Pin Me Down - Cryptic tab

Artist: Pin Me Down
Song: Cryptic
Tabber: Gavin Davis (RussellLissackLover www.blocparty.net)
www.pinmedown.net
www.myspace.com/pinmedown


Russell (Lead)
e|----------------------------------------|
b|----------------------------------------|
g|----------------------------------------|
d|----------------------5-7------9-10-----|
a|-----7-8-----8-10-----------------------|
E|--55------55-------55-------------------|

e|----------------------------------------|
b|----------------------------------------|
g|----------------------------------------|
d|----------------------------------------|
a|---------------8-10-----------10-8------|
E|--55--7-8--55--------55--7-8------------|
Tap to rate this tab
 
# A B C D E F G H I J K L M N O P Q R S T U V W X Y Z