Song name
# A B C D E F G H I J K L M N O P Q R S T U V W X Y Z

Pin Me Down - Time Crisis tab

This song is fantastic, and hopefully will help Pin Me Down get big this year :D

Lead Guitar (Russell Lissack!!!!)

Verse 1
e|xx10-xx10-xx10-8-10-xx10-xx10-xx10-8-10-|
B|----------------------------------------|
G|----------------------------------------|
D|----------------------------------------|
A|----------------------------------------|
E|----------------------------------------|

Pre-Chorus
e|-------------------|
B|-------------------|
G|10~-9~-14~-17~-18~-|
D|x---x--x---x---x---|
A|8~--7~-12~-15~-16~-|
E|-------------------|

Chorus - I think Russell may use some kind of octave pedal here
e|--8-6-5----8-5-------8-6-5---------|
B|66-----8--6----868-66-----8-6-6555-|
G|-----------------------------------|
D|-----------------------------------|
A|-----------------------------------|
E|-----------------------------------|

Break before verse 2 is the same as verse 1

Sit out the first part of verse 2 then play verse 1 again

Pre Chorus

Chorus (Sit out first half of riff first time round)

Just play the chorus until the end :)



Guitar 2 (Milena maybe?)

Verse
e|----------------------|
B|----------------------|
G|77--------------------|
D|77-33-88---88-33-1010-|
A|55-33-88---88-33-1010-|
E|---11-66---66-11-8-8--|

Pre Chorus
e|-----------------|
B|-----------------|
G|-----------------|
D|5~-6~-8~-10~-11~-|
A|5~-6~-8~-10~-11~-|
E|3~-4~-6~-8~--9~--|

Chorus
e|----------------------------------|
B|----------------------------------|
G|77--------------77-1010-555555555-|
D|77-33-888888888-77-1010-555555555-|
A|55-33-888888888-55-8-8--333333333-|
E|---11-666666666-------------------|

Thats it, easy :)

Hopefully this is correct, let me know if you disagree :)
Tap to rate this tab
 
# A B C D E F G H I J K L M N O P Q R S T U V W X Y Z