Pin Me Down - Cryptic tab

Song: Cryptic
Artist: Pin Me Down
Tuning: Standard

Tabbed by Kai. If you've got any questions about this tab, feel free to send me an email 
at rams_fan_downunda@hotmail.com

INTRO/MAIN RIFF:
e|----------------------------------|
B|----------------------------------|
G|----------------------------------|
D|-----------------------------9-10-|
A|-0-0-7-8-0-0-8-10-0-0-10-12-0-0---|
E|----------------------------------|

e|----------------------------------|
B|----------------------------------|
G|----------------------------------|
D|----------------------------------|
A|-0-0-----0-0-6-7-0-0-----0-10-0-8-|
E|-----7-8-------------7-8----------|

Play this twice. Finish on a 7 on the A string second time around.

VERSE:
Nothing.

PRE-CHORUS:
e|-------------------------------------------------|
B|-10-10-10-10-10-10-10-10-13-13-13-13-13-13-13-13-|
G|-9--9--9--9--9--9--9--9--10-10-10-10-10-10-10-10-|
D|-------------------------------------------------|
A|-------------------------------------------------|
E|-------------------------------------------------|

Play this twice.

e|--------------------------------------------|
B|--------------------------------------------|
G|-9~~~----7~-12~-9~~~---14-14-14-12-12-12-9~-|
D|-10~~----7~-10~-10~~------------------------|
A|--------------------------------------------|
E|--------------------------------------------|

Play this twice.
~ indicates sustain.

CHORUS:
e|----X----------X---X----X----X----------X-------------|
B|----X----------X---X----X----X----------X-------------|
G|-12~X-12-12-12-X-7~X-9~~X-16~X-12-12-12-X-9--9--10-10-|
D|-10~X-10-10-10-X-7~X-10~X-14~X-10-10-10-X-10-10-10-10-|
A|----X----------X---X----X----X----------X-------------|
E|----X----------X---X----X----X----------X-------------|

Play this four times.
X indicates a muted string.

INTRO/MAIN RIFF:
e|----------------------------------|
B|----------------------------------|
G|----------------------------------|
D|-----------------------------9-10-|
A|-0-0-7-8-0-0-8-10-0-0-10-12-0-0---|
E|----------------------------------|

e|----------------------------------|
B|----------------------------------|
G|----------------------------------|
D|----------------------------------|
A|-0-0-----0-0-6-7-0-0-----0-10-0-8-|
E|-----7-8-------------7-8----------|

Play this again, twice

VERSE:
Nothing.

PRE-CHORUS:
e|-------------------------------------------------|
B|-10-10-10-10-10-10-10-10-13-13-13-13-13-13-13-13-|
G|-9--9--9--9--9--9--9--9--10-10-10-10-10-10-10-10-|
D|-------------------------------------------------|
A|-------------------------------------------------|
E|-------------------------------------------------|

Only play this once this time.

e|--------------------------------------------|
B|--------------------------------------------|
G|-9~~~----7~-12~-9~~~---14-14-14-12-12-12-9~-|
D|-10~~----7~-10~-10~~------------------------|
A|--------------------------------------------|
E|--------------------------------------------|

Play this twice.


CHORUS:
e|----X----------X---X----X----X----------X-------------|
B|----X----------X---X----X----X----------X-------------|
G|-12~X-12-12-12-X-7~X-9~~X-16~X-12-12-12-X-9--9--10-10-|
D|-10~X-10-10-10-X-7~X-10~X-14~X-10-10-10-X-10-10-10-10-|
A|----X----------X---X----X----X----------X-------------|
E|----X----------X---X----X----X----------X-------------|

Play this four times. The final time repeat the last two power chords twice.

BRIDGE:

e|--------------------------------------------------------------------|
B|-------------------13>>>>>>>----------------------------------------|
G|-12>>>>>>>10>>>9>>>---------12>>>10>>>9>>------------------9--------|>>>>>>
D|-----------------------------------------10>>>>>>>12>>>>>>>---------|
A|--------------------------------------------------------------------|
E|--------------------------------------------------------------------|

e|---------------------------------------------------------------------------|
B|13>>>>>>>12>>>-------15>>>17>>>>>20>>>17>>>>>15>>>13>>>>>15>>17>>>>>15>>13-|
G|--------------12>>>>>------------------------------------------------------|
D|---------------------------------------------------------------------------|
A|---------------------------------------------------------------------------|
E|---------------------------------------------------------------------------|

> indicates tremolo picking.

OUTRO:

e|-13-13-13-13-8-8-8-8---------8-8-8-10-8-8-8-8------8-8------|
B|---------------------9-9-9-9------------------9-10-----9----|
G|---------------------------------------------------------10-|
D|------------------------------------------------------------|
A|------------------------------------------------------------|
E|------------------------------------------------------------|

Play this twice.

e|-12-12-12-12-12-13-12--------------------15-----|
B|----------------------15-13~-13-13-15-13----13~-|
G|------------------------------------------------|
D|------------------------------------------------|
A|------------------------------------------------|
E|------------------------------------------------|

e|-------------15-15-13~-12-13-15-|
B|-13-13-15-13--------------------|
G|--------------------------------|
D|--------------------------------|
A|--------------------------------|
E|--------------------------------|

Play this twice and finish on:

e|-12-|
B|-13-|
G|(12)|
D|----|
A|----|
E|----|
Tap to rate this tab
 
# A B C D E F G H I J K L M N O P Q R S T U V W X Y Z