Song name
# A B C D E F G H I J K L M N O P Q R S T U V W X Y Z

Pinback - Good To Sea tab

-------------------------------------------------------------------------------
			      GOOD TO SEA - Pinback
-------------------------------------------------------------------------------

Tuning: Standard

Melody that plays through the whole song
e|--------------------------------------------------|
B|-------------3--3---------------------------------|
G|0--0--0--0--------4--2--4--4--4--4-2-4--4--2------|
D|-----------4----------------------------------4---|
A|--------------------------------------------------|
E|--------------------------------------------------|

Rhythm Guitar that plays through the whole song
e|--------------------------------------------------------------------|
B|--------------------------------------------------------------------|
G|------------------4-4----4-4-----------------------4-4----4-4-------|
D|--5-5----5-5------4-4----4-4---4--5-5----5-5------4-4----4-4---4----|
A|--5-5----5-5------2-2----2-2---4--5-5----5-5------2-2----2-2---4----|
E|--3-3----3-3-0-----------------2--3-3----3-3-0------------------2---|

Subtle echo part
e|------------------------|
B|------------------------|
G|--------99-------99-----|
D|--55-77----55-77--------|
A|------------------------|
E|------------------------|

Really simple but sweet and catchy song!

| /  slide up
| \  slide down
| h  hammer-on
| p  pull-off
| ~  vibrato
| +  harmonic
| x  Mute note
===============================================================================
Tap to rate this tab
# A B C D E F G H I J K L M N O P Q R S T U V W X Y Z