Song name
# A B C D E F G H I J K L M N O P Q R S T U V W X Y Z

Pinback - Offline Pk tab

-------------------------------------------------------------------------------
			     PINBACK - Offline P.K.
-------------------------------------------------------------------------------
Tabbed by: Barkeroni
Email: jeffbarker10@hotmail.com

Tuning: Standard

e|---------------------------------------------------------------------------|
B|---------------------------------------------------------------------------|
G|--4-4-6-6-4-4-6-6-7-7-4-4-6-6-----4-4-6-6-4-4-6-6-7-7-4-4-6-6-4-4----------|
D|----------------------------------------------------------------------2-4~-|
A|---------------------------------------------------------------------------|
E|---------------------------------------------------------------------------|

e|--x---x---0---3---3h5---2-2--2h3p0h2---------------------------------------|
B|--3---3---3---3---3-----3-3--3---------------------------------------------|
G|--2---4---0---0---0-----2-2--2-------0h2p0---------------------------------|
D|--0---0---0---0---0-----0-0------------------------------------------------|
A|--x---x---x---x---x--------------------------------------------------------|
E|--3---3---3---3---3--------------------------------------------------------|


Probably isn't the actual way they play it but it sounds like it...I'll try
to figure out the little fills later


| /  slide up
| \  slide down
| h  hammer-on
| p  pull-off
| ~  vibrato
| +  harmonic
| x  Mute note
===============================================================================
Tap to rate this tab
# A B C D E F G H I J K L M N O P Q R S T U V W X Y Z