Song name
# A B C D E F G H I J K L M N O P Q R S T U V W X Y Z

Pinback - Fortress tab

Help us improve GuitareTab! Take a short survey!
Pinback-FORTRESS
-------------------------------------------------------------------------------
Tabbed by:Jenn
Email:jennarab@hotmail.com

Tuning:Drop D (DADGBe)

(Main Riff)
e|---------------------------------------------------------------------------|
B|---------------------------------------------------------------------------|
G|---------------------------------------------------------------------------|
D|---------------------------------------------------------------------------|
A|-----5--------5-------5--------3---------3----------3----------------------|
D|-0-------0--------0-------7---------7----------7---------------------------|

(2nd guitar)
e|----------------7----5------------------------------7--5--5-5--------------|
B|--------------------------8----5-------------------------------8-----5-5---|
G|--7----5----------------------------7-7---5--------------------------------|
D|-----------7----------------------------------7----------------------------|
A|---------------------------------------------------------------------------|
D|---------------------------------------------------------------------------|


(Chorus)
Stop, it's too late I see no sign of fortress...
e|---------------------------------------------------------------------------|
B|---------------------------------------------------------------------------|
G|---7------5---7-------5-----5------7-7-7-----------------------------------|
D|------7------------7-----7------7-----------5-----5----5--7------3-----3---|
A|-----------------------------------------8-----8-----8--------5-----5----5-|
D|---------------------------------------------------------------------------|

Chords during chorus: D,A, F, G
Sorry about any mistakes...It's taken me a while to get this right and I'm pretty sure its acurate.
Also, it still sounds pretty good if you use standard tuning. E-mail me if you've got any questions!

| /  slide up
| \  slide down
| h  hammer-on
| p  pull-off
| ~  vibrato
| +  harmonic
| x  Mute note
Related for Fortress tab