Pinback - Victorious D tab

-----------------------------------------------------------------------------
			   Victorious D - Pinback
-----------------------------------------------------------------------------
Tabbed by: Tony Sanchez
Email: sancheztony47@gmail.com

Tuning: EADGBe standard

I didn't see a tab for this song, so I decided to give it a shot. I did it by ear, it 
me 2 hours. Most of it is correct I believe.

Intro [0:05]:
Guitar 1:
e|---------------------------------------------------------------|
B|---------------------------------------------------------------|
G|---------------------------------------------------------------|
D|-9-7-6------7--6------9-7-6------4-2----4-6-4--2-6------9-7-6--|
A|---------------------------------------------------------------|
E|---------------------------------------------------------------|

e|---------------------------------------------------------------|
B|---------------------------------------------------------------|
G|-6-------------------------------------------------------------|
D|---6------9-7-6------4-2----4-6-4--2-6-------------------------|
A|---------------------------------------------------------------|
E|---------------------------------------------------------------|

Verse [0:35]:
Guitar 1:
e|-----------------|
B|-----------------|
G|-----------------|
D|-6------7-6----4-|
A|-----------------|
E|-----------------|

(Bass riff in between)

[0:49]
Guitar 1:
e|-----------------|
B|-----------------|
G|-----------------|
D|-6------9-7----4-|
A|-----------------|
E|-----------------|

(Bass riff in between)

[1:03]
Guitar 1:
e|-----------------|
B|-----------------|
G|-----------------|
D|-6------7-6----4-|
A|-----------------|
E|-----------------|

(Bass riff in between)

[1:17]
Guitar 1:
e|-----------------|
B|-----------------|
G|-----------------|
D|-6------9-7----4-|
A|-----------------|
E|-----------------|
(Bass riff in between)

[1:29]
Guitar 1:
e|-------------------------|
B|-------------------------|
G|-3-1---------3-1---------|
D|-----4--2--------5--3----|
A|----------2------------2-|
E|-------------------------| Repeat twice.


[1:40]:
Guitar 1:
e|-----------------|
B|-----------------|
G|-----------------|
D|-6------7-6----4-|
A|-----------------|
E|-----------------|

Guitar 2:
e|----------------------------------------|
B|---5---5-5---5---5-5---4---4-4---4---4-4|
G|----------------------------------------|
D|-6---6-----6---6-----4---4-----4---4----|
A|----------------------------------------|
E|----------------------------------------|

(Bass riff in between)

[1:54]:
Guitar 1:
e|-----------------|
B|-----------------|
G|-----------------|
D|-6------9-7----4-|
A|-----------------|
E|-----------------|

Guitar 2:
e|----------------------------------------|
B|---5---5-5---5---5-5---4---4-4---4---4-4|
G|----------------------------------------|
D|-6---6-----6---6-----4---4-----4---4----|
A|----------------------------------------|
E|----------------------------------------|

(Bass riff inbetween)

[2:08]:
Guitar 1:
e|-----------------|
B|-----------------|
G|-----------------|
D|-6------7-6----4-|
A|-----------------|
E|-----------------|

Guitar 2:
e|----------------------------------------|
B|---5---5-5---5---5-5---4---4-4---4---4-4|
G|----------------------------------------|
D|-6---6-----6---6-----4---4-----4---4----|
A|----------------------------------------|
E|----------------------------------------|

(Bass riff in between)

[2:22]:
Guitar 1:
e|-----------------|
B|-----------------|
G|-----------------|
D|-6------9-7----4-|
A|-----------------|
E|-----------------|

Guitar 2:
e|----------------------------------------|
B|---5---5-5---5---5-5---4---4-4---4---4-4|
G|----------------------------------------|
D|-6---6-----6---6-----4---4-----4---4----|
A|----------------------------------------|
E|----------------------------------------|

(Bass riff in between)

[2:34]:
Guitar 1:
e|-------------------------|
B|-------------------------|
G|-3-1---------3-1---------|
D|-----4--2--------5--3----|
A|----------2------------2-|
E|-------------------------| Repeat twice.

[2:47]:
Guitar 1:
e|---------------------------------------------------------------|
B|---------------------------------------------------------------|
G|---------------------------------------------------------------|
D|-9-7-6------7--6------9-7-6------4-2----4-6-4--2-6------9-7-6--|
A|---------------------------------------------------------------|
E|---------------------------------------------------------------|

e|---------------------------------------------------------------|
B|---------------------------------------------------------------|
G|-6-------------------------------------------------------------|
D|---6------9-7-6------4-2----4-6-4--2-6-------------------------|
A|---------------------------------------------------------------|
E|---------------------------------------------------------------|

[3:07]:
Ending Chord Progression:
  E   ?   A  Am      E   ?    A  Am
e|0---x---0---0------0---4---5---5-------------------------------|
B|0---1---2---1------0---4ó--5---5-------------------------------|
G|1---1---2---2ó-----1---5---6---5-------------------------------|
D|2---1---2---2------2---6---7---7-------------------------------|
A|2---x---0---0------2---6---7---7-------------------------------|
E|0---x---x---x------0---4---5---5-------------------------------|
Up above is two chord progressions that you can use for the ending, the second set 
better, but it's your choice between the two. Repeat 4 times, and you can figure out the 
rhythm.

[3:48]:
I could not get this ending bit because itís hard to hear it in the song; I canít 
it well enough to tab it.

Well that is all I could accomplish, I hope for feedback and it would really be great if 
contributed and helped fix this tab with corrections. This is a really great song, and 
sucks that it has no tabs yet.
Enjoy the tab :D
Tap to rate this tab
 
# A B C D E F G H I J K L M N O P Q R S T U V W X Y Z