Song name
# A B C D E F G H I J K L M N O P Q R S T U V W X Y Z

Pinback - Anti-hu tab

-------------------------------------------------------------------------------
			     Anti-Hu - Pinback
-------------------------------------------------------------------------------
Tabbed by:Dak R.
Email:

Tuning:EADGBE

e|-------------------------------------------------------------------|
B|-------------------------------------------------------------------|
G|-3-----------------------------------------------------------------|
D|--3-6--------------------------------------------------------------|
A|-----4-4-----4s8-4-4----4s8-4-4----4s8-4-4-------------------------|
E|--------4-6---------4-6--------4-6--------4-6----------------------|
Tap to rate this tab
 
# A B C D E F G H I J K L M N O P Q R S T U V W X Y Z