Pinback - The Speed Of Dub tab

Tabbed by: chrtes

Email: capslock44107@yahoo.com

Tuning: EADgbe


| /  slide up
| \  slide down
| h  hammer-on
| p  pull-off
| ~  vibrato
| +  harmonic
| x  Mute note
| b  Bend


e|----------------------------|3x
B|----------------------------|
G|-----0--------2--2--0-------|
D|--4----4------2--2----0-----|
A|--2------2------------------|
E|-----------3----------------|

e|---------|5x
B|---------|
G|---------|
D|--4------|
A|--2------|
E|---------|


e|----------------------------|4x
B|----------------------------|
G|-----0--------2--2--0-------|
D|--4----4------2--2----0-----|
A|--2------2------------------|
E|-----------3----------------|


e|---------------------------------|3x
B|---------------------------------|
G|--------0---------2----2-0-------|
D|--4---4----4------2--2-----0-----|
A|--2----------2-------------------|
E|---------------3-----------------|

This part of the song has a lot of Variations i'm to lazy to write, this is whats played 
Variations of course.

e|------------------------------------|
B|-----2h4--2-4-----------------------|
G|------------------------------------|
D|--4------------4-0----5--4-0-2------|
A|--2----------------2----------------|
E|------------------------------------|

then

e|-------------------------------------|12x
B|-------------------------------------|
G|-------------------------------------|
D|--2-----2----------------------------|
A|-------------------------------------|
E|----3-3---3-3--5-7--0-0-0--7-7-7-7---|

e|-------------------------------------------|2x
B|-------------------------------------------|
G|--7-5-6------------------------------------|
D|---------7--7-5----------------------------|
A|-----------------7-5--7-5------7-5---------|
E|--------------------------5-0------5-0-----|


e|-----------------------------------|4x
B|-----------------------------------|
G|---2h4--2--4--------2--2--0--------|
D|--------------4-----2--2----0------|
A|----------------2------------------|
E|------------------3----------------|

e|-----------------|2x
B|--2h4-2-4-4-4-4--|
G|-----------------|
D|-----------------|
A|-----------------|
E|-----------------|

e|-----------------------------------|2x
B|-----------------------------------|
G|---2h4--2--4--------2--2--0--------|
D|--------------4-----2--2----0------|
A|----------------2------------------|
E|------------------3----------------|

e|-----------------|2x
B|--2h4-2-4-4-4-4--|
G|-----------------|
D|-----------------|
A|-----------------|
E|-----------------|

e|-------------------------------------------|2x
B|--2h4--4-0-4-0-4-0-----2h4-2-0----0--------|
G|--------------------5----------------------|
D|-------------------------------------------|
A|--------------------------------2----2-----|
E|-------------------------------------------|


e|--------------------------------------|4x
B|---4-0-4-0-4-0------------------------|
G|----------------5--5-4-0-----5-4-0----|
D|-------------------------2---------2--|
A|--------------------------------------|
E|--------------------------------------|

e|---x----x---x-------|
B|---x----x---x-------|
G|---x----x---x-------|
D|---x----x---x-------|
A|---x----x---x-------|
E|---x----x---x-------|

e|--------------------------------|
B|--0-4-0-4-0-4-0-----------------|
G|-----------------5--5---5-------|
D|--------------------------------|
A|--------------------------------|
E|----------------------3---3-----|
Tap to rate this tab
 
# A B C D E F G H I J K L M N O P Q R S T U V W X Y Z