Pinback - Fortress tab

There's another tab by Jenn that's just a tad off in a few places, most noticeably in
the main riff and the 2nd guitar. I'm not sure how s/he ended up with the tab s/he did but
this is a little more correct. It's possible the other tab's listing pertains to a 
little later in the song but to my hears the riffs sound mostly the same the whole way
through. Much thanks to Jen though, this is largely just a touch up of s/he original post.

(Main Riff/repeat)
e|---------------------------------------------------------------------------|
B|---------------------------------------------------------------------------|
G|---------------------------------------------------------------------------|
D|---------------------------------------------------------------------------|
A|-----5--------5-------5--------3---------3----------3----------------------|
D|-0-------0--------0-------7---------7----------7---------7----5------------|

(2nd guitar)
e|----------------7----5--5----------------------------------------------------|
B|----------------------------8---5----3---------------------------------------|
G|--7----5---------------------------------------------------------------------|
D|-----------7-----------------------------------------------------------------|
A|-----------------------------------------------------------------------------|
D|-----------------------------------------------------------------------------|

Chorus)
Stop, it's too late I see no sign of fortress...
e|---------------------------------------------------------------------------|
B|---------------------------------------------------------------------------|
G|---7------5---7-------5-----5------7-7-7-----------------------------------|
D|------7------------7-----7------7-----------5-----5----5--7------3-----3---|
A|-----------------------------------------8-----8-----8--------5-----5----5-|
D|---------------------------------------------------------------------------|


Chords during chorus: D,A, F, G

There are probably mistakes but I'm sure the main riff and the 2nd guitar are mostly
right. I am a complete novice at the guitar but this seemed easy enough to pick out. Email
me for corrections!
Tap to rate this tab
 
# A B C D E F G H I J K L M N O P Q R S T U V W X Y Z