Song name
# A B C D E F G H I J K L M N O P Q R S T U V W X Y Z

Pinback - Barnes tab

-------------------------------------------------------------------------------
			     Barnes - Pinback
-------------------------------------------------------------------------------
Tabbed by:ib4e
Email:nyo14@yahoo.com

Tuning:Drop D

Intro:

e|------------------------------------------------------|
B|------------------------------------------------------|
G|------7-7-----10-10-----5-5--------5-5----------------|
D|-------------------------------------------3-3--------| (x2)
A|------------------------------------------------------|
D|------------------------------------------------------|

e|------------------------------------------------------------------|
B|------------------------------------------------------------------|
G|------------------------------------------------------------------|
D|------------------------------------------------------------------| (x2)
A|-----------------5-5-3----3p0---3p0----3p0---3p0----3p0---3-------|
D|----5-7-7-5----7--------------0------------0------------0---------|

Verse:
e|--------------------------|
B|--------------------------|
G|------------------5-------|
D|--------3---------5-------| (x4)
A|----3/5---5\3-----3-------|
D|--------------5---3-------|

e|-------------------|
B|-------------------|
G|-------------------|
D|--------3----------|
A|----3/5---5\3------|
D|--------------5----|

Repeat intro and verse once, then..

Chorus:
e|----------------------------------------------------|
B|----------------------------------------------------|
G|----------------------------------------------------|
D|-------2-2-----2--5-5--------7-7--------7-7---------| (x4)
A|----3--0-0--------3-3-----5--5-5-----5--5-5---------|
D|----------------------------------------------------|

Repeat intro once..

Bridge:
e|---------------------------------------------------|
B|---------------------------------------------------|
G|---------7--------7----------5---2-----------------|
D|------3---------3--3------3----------5---3---------| (x4)
A|----5--5------5---------3--3-----------------------|
D|---------------------------------------------------|

Play Chorus until the end.


************************************

| /   slide up
| \   slide down
| h   hammer-on
| p   pull-off
| ~   vibrato
| +   harmonic
| x   Mute note
| b   Bend
| pb  Pre-bend
| br  Bend release
| pbr Pre-bend release
| brb Bend release bend

************************************
Tap to rate this tab
 
# A B C D E F G H I J K L M N O P Q R S T U V W X Y Z