Song name
# A B C D E F G H I J K L M N O P Q R S T U V W X Y Z

Pinback - Non-photo Blue tab

-----------------------------------------------------------------------------
                             Non Photo-Blue - Pinback
-----------------------------------------------------------------------------
Tabbed by: Colin Cyr
E-mail: colincyr@hotmail.com

Tuning: EADGBE

e|-------------------------------------------------------------------------|
B|-------------------------------------------------------------------------|
G|-------4-4-4-4-4-------4-4-0-0-4-----------------------------------------|
D|-------4-4-0-0-4-------4-4-0-0-4-----------------------------------------|
A|-------------------------------------------------------------------------|
E|---3-3-------------3-3---------------------------------------------------|
     * * * * * * *   * * * * * * *
e|-------------------------------------------------------------------------|
B|-------------------------------------------------------------------------|
G|-------4-4-4-4-4-------4-4-4-4-4-----------------------------------------|
D|-------4-4-0-0-4-------4-4-0-0-4-----------------------------------------|
A|---2-2-------------------------------------------------------------------|
E|-------------------0-0---------------------------------------------------|
     * * * * * * *   * * * * * * *


************************************
| *   palm mute
| /   slide up
| \   slide down
| h   hammer-on
| p   pull-off
| ~   vibrato
| +   harmonic
| x   Mute note
| b   Bend
| pb  Pre-bend
| br  Bend release
| pbr Pre-bend release
| brb Bend release bend

************************************
Tap to rate this tab
 
# A B C D E F G H I J K L M N O P Q R S T U V W X Y Z