Song name
# A B C D E F G H I J K L M N O P Q R S T U V W X Y Z

Pinback - Loro tab

Hey, if you're looking for the most comprehensive Loro tab, this is it. No shit. I like
to use my pointer finger to strum the high notes while alternating the bass notes with
my thumb. Simple stuff. I've also included the bass line at the bottom. (Well, 
technically they're both bass lines)

But this is for guitar.

Rhythm Guitar/Bass - Capo on 1
Lead Guitar/Bass - (NO CAPO) <-------------{THAT'S IMPORTANT}

All notes relative to capo


Rhythm Guitar/Bass (CAPO ON 1)

E|--------------------------------------------------|
B|--2-----2-----2-----2-----0-----0-----0-----0-----|
G|--2-----2-----2-----2-----2-----2-----2-----2-----|
D|--------------------------------------------------|
A|-----0-----0-----0-----0-----0-----0-----0-----0--|
E|--------------------------------------------------|


E|--------------------------------------------------|
B|--------------------------0-----0-----0-----0-----|
G|--2-----2-----2-----2-----2-----2-----2-----2-----|
D|--2-----2-----2-----2-----------------------------|
A|-----------------------------0-----0-----0-----0--|
E|-----2-----2-----2-----2--------------------------|


E|--------------------------------------------------|
B|--------------------------------------------------|
G|--1-----1-----1-----1-----1-----1-----1-----1-----|  (x2)
D|--2-----2-----2-----2-----2-----2-----2-----2-----|
A|-----------------------------0-----0-----0-----0--|
E|-----0-----0-----0-----0--------------------------|

Repeat entire sequence as needed.


Lead Guitar/Bass (NO CAPO) <-------------{STILL IMPORTANT}

G|-----------------0~~~-----2~~~--2---------------------------------|
D|----0-3-3~~~-0-3------0-3---------3-0~~~3~~----3\\----------------|
A|-1~~---------------------------------------1----------------------|
E|--------------------------------------------------1~~~-1-1~~~-----|


G|------------------0~~~-----2~~~--2--------------------------------|
D|-------0-33~~-0-3------0-3---------3-0~~~-3~~---3\\---------------|
A|---1~~----------------------------------------1-------------------|
E|-3--------------------------------------------------1~~-1-1~~~----|


---OR---


G|------------------------------------------------------------------|
D|---------------------5~~~------7~~~~-7----------------------------|
A|------5-8-8~~~--5-8-------5-8---------8-5~~~--8~~---8\\-----------|
E|-6~~~--------------------------------------------6~----1~~-1-1~~~-|


G|------------------------------------------------------------------|
D|----------------------5~~~-----7~~~-7-----------------------------|
A|---------5-8-8~~~-5-8------5-8--------8-5~~-8~~-----8\\-----------|
E|-3--6~~~----------------------------------------6~~-----1~~-1-1~~-|


There you go.


Credits for overall tab go to "andsowhat", "jihad_joe", and myself.
Tap to rate this tab
 
# A B C D E F G H I J K L M N O P Q R S T U V W X Y Z