Song name
# A B C D E F G H I J K L M N O P Q R S T U V W X Y Z

Pinback - Boo tab

This might not be 100% accurate but it's playable..


e|----------------------------------------------------|
B|----------------------------------------------------|
G|--------3-3/7-3-3-2-0-3-3-2-0-----------------------| 3x
D|----0-3-------------------------3-0-3-3-0-----------|
A|--1-------------------------------------------------|
E|----------------------------------------------------|

e|----------------------------------------------------|
B|----------------------------------------------------|
G|--7\3-7\3-2-33-7\3/10-12\7--------------------------| 
D|----------------------------------------------------|
A|----------------------------------------------------|
E|----------------------------------------------------|

Vocals
e|----------------------------------------------------|
B|----------------------------------------------------|
G|------7\3-2-33-7\3/10-12\7--------------------------| 
D|----------------------------------------------------|
A|----------------------------------------------------|
E|----------------------------------------------------|
Tap to rate this tab
# A B C D E F G H I J K L M N O P Q R S T U V W X Y Z