Song name
# A B C D E F G H I J K L M N O P Q R S T U V W X Y Z

Pinback - Im A Pretty Lady tab

-------------------------------------------------------------------------------
                             I'M A PRETTY LADY - Pinback
-------------------------------------------------------------------------------
Tabbed by: Justin
E-mail: sdjustinr@gmail.com

Tuning: Standard
Notes: I love the intro so I decided to tab out the whole song. Luckily there's one 
distinct rhythm guitar
part throughout the whole song, which seems unusual for Pinback. I may decide to tab out 
all the
extraneous guitar parts later. But for now I hope you enjoy.

   intro/verse:

     |   |   |   |   |   |   |   |
e|-------------------------------------|
B|.--------0---------------0----------.|
G|-------2-------2-0-----2-------2-0---|
D|-----4-------0-------4-------0-------|
A|.--0-------3-------0-------3--------.|
E|-------------------------------------|


   chorus:
     |   |   |   |   |   |    |    |   |   |
e|----------------------------------------------|
B|.--------------------------------------------.|
G|----------------------------------------------|
D|-----2---0---2---0---2---0-----4-4-4-4-4-4----|
A|.----------0---0---3---3---3/5---5-5-5-5-5---.| repeat once
E|---3---3--------------------------------------|

      "Lay there with your mouth on mine.."

     |   |   |   |   |   |    |    |   |   |
e|-----------------------------------------------|
B|.---------------------------------------------.|
G|-----------------------------------------------|
D|-----0---0---0---0---2---2-----4-4-4-4-4-4-----|
A|.----------0---0---3---3---3/5---5-5-5-5-5----.| then play this twice
E|---3---3---------------------------------------|


   outro:

     |   |   |   |   |   |   |   |
e|------------------------------------|
B|.----------------------------------.|
G|-------0-------0-------0-------0----|
D|-----2-------0-------2-------0------|
A|.--3-----3p2-----2-3-----3p2-----2-.| Repeat until fade-out.
E|------------------------------------|

     "Move your soul to the right"

************************************

| /   slide up
| \   slide down
| h   hammer-on
| p   pull-off
| ~   vibrato
| +   harmonic
| x   Mute note
| b   Bend
| pb  Pre-bend
| br  Bend release
| pbr Pre-bend release
| brb Bend release bend

**********************************
Tap to rate this tab
# A B C D E F G H I J K L M N O P Q R S T U V W X Y Z