Song name
# A B C D E F G H I J K L M N O P Q R S T U V W X Y Z

Pinback - Tripoli tab

--------------------------------------------------------------------------
			     Tripoli - Pinback
--------------------------------------------------------------------------
Tabbed by: Matty C
Email: Happyquakiduck@msn.com

Tuning: Standard EADGBE

Main Riff
e|-----------------------------------------------------------------------|
B|-----------------------------------------------------------------------|
G|-----------------------------------------------------------------------|
D|-----------------------------------------------------------------------|
A|-5---5--7---7--9----9--12----12--10----10--9----9--7----7--7----7------|
E|---7------9------10-------12--------12-------10------10------9---------|

During "Sad I'm gonna die" the main riff changes a tiny bit
e|-----------------------------------------------------------------------|
B|-----------------------------------------------------------------------|
G|-----------------------------------------------------------------------|
D|-----------------------------------------------------------------------|
A|-5---5--7-7-5-----9----9--12----12--10----10--9----9--7----7--7----7---|
E|---7----------7-5---10-------12--------12-------12------10------9------|


Later is a bit of a solo type riff
e|-----------------------------------------------------------------------|
B|-----------------------------------------------------------------------|
G|-----------------------------------------------------------------------|
D|------------------------------11---------11----------------------------|
A|-5/9-9/12-12/14-16/12-12/9----------9----------------------------------|
E|---------------------------10----10---10----10-------------------------|



One of my favorite songs 

Questions, comments, compliments, corrections go to Happyquakiduck@msn.com

Matty C <3
Tap to rate this tab
# A B C D E F G H I J K L M N O P Q R S T U V W X Y Z