Song name
# A B C D E F G H I J K L M N O P Q R S T U V W X Y Z

Pinback - Loro tab

----------------------------------------------------------------------------
			     Loro - Pinback
----------------------------------------------------------------------------
Tabbed by: Matty C
Email: Happyquakiduck@msn.com

Tuning: Standard EADGBE

Use your neck pickup and roll the tone down nice and low
This riff repeats throughout the entire song
e|----------------------------------------------------------------------|
B|----------------------------------------------------------------------|
G|--7---7---7---7---5---5---5---5---3---3---3---3---5---5---5---5-------|
D|----3---3---3---3---3---3---3---3---3---3---3---3---3---3---3---3-----|
A|----------------------------------------------------------------------|
E|----------------------------------------------------------------------|

e|----------------------------------------------------------------------|
B|----------------------------------------------------------------------|
G|--2---2---2---2---2---2---2---2---2---2---2---2---2---2---2---2-------|
D|----3---3---3---3---3---3---3---3---3---3---3---3---3---3---3---3-----|
A|----------------------------------------------------------------------|
E|----------------------------------------------------------------------|

That's the whole song.
Hard to believe but this song is all about the bass

Questions, comments, compliments, or corrections go to Happyquakiduck@msn.com

Matty C <3
Tap to rate this tab
# A B C D E F G H I J K L M N O P Q R S T U V W X Y Z