Song name
# A B C D E F G H I J K L M N O P Q R S T U V W X Y Z

Pinback - Microtonic Wave tab

--------------------------------------------------
	     Microtonic Wave - Pinback
--------------------------------------------------
Tabbed by: Matty C
Email: Happyquakiduck@msn.com

Tuning: Standard EADGBE

Use delay on this
e|---------------------------------------------------------------|
B|-7-9-4~--------------------------------------------------------|
G|-7-9-4~--------------------------------------------------------|
D|-7-9-4~--------------------------------------------------------|
A|---------------------------------------------------------------|
E|---------------------------------------------------------------|

Truthfully, this effect has me baffled
It honestly sounds like an envelope filter, with some phaser, and some wah
Good luck, nonetheless..
e|---------------------------------------------------------------|
B|---------------------------------------------------------------|
G|---------------------------------------------------------------|
D|-----5p4-----4p2----4p2----4p2----5p4----9\-----4-5-7-5-4-2\---|
A|---------------------------------------------------------------|
E|--55------33-----11-----00-----55-----44----00-----------------|

Guitar chords behind that riff
   Am    G    F    E
e|---------------------------------------------------------------|
B|-555--333--111--000--------------------------------------------|
G|-555--444--222--000--------------------------------------------|
D|-777--555--333--222--------------------------------------------|
A|-777--555--333--222--------------------------------------------|
E|-555--333--111--000--------------------------------------------|

Piano riff transposed for guitar
"Ha ha ha ha"
e|----------12~-----------------------------12~----------------------|
B|-10-12-13-----13-12-10-12-13-----10-12-13------13-12-10-12-13------|
G|-----------------------------9~-------------------------------9~---|
D|-------------------------------------------------------------------|
A|-------------------------------------------------------------------|
E|-------------------------------------------------------------------|

"Caught inside the booth, hanging up the phone."
Am, G, F, E x3 
D

Am, G, F, E x3
D, C, D, C


Not much to this song, just timing the piano riff correctly really.
Still an amazing song.

Questions, comments, compliments, or corrections go to Happyquakiduck@msn.com

Matty C <3

To: Devin
Tap to rate this tab
# A B C D E F G H I J K L M N O P Q R S T U V W X Y Z