Song name
# A B C D E F G H I J K L M N O P Q R S T U V W X Y Z

Pinback - Syracuse tab

------------------------------------
	Syracuse - Pinback
------------------------------------
Tabbed by: Matty C
Email: Happyquakiduck@msn.com

Tuning: Standard EADGBE


Intro
e|----------------------------------------------------------|
B|----------------------------------------------------------|
G|----------------------------------------------------------|
D|---------2-2------x2--------------------------------------|
A|-3-3-3-3-3-3-2-2------------------------------------------|
E|-1-1-1-1-----3-3------------------------------------------|

Step down into sand........Water carries us from here
e|----------------------------------------------------------|
B|----------------------------------------------------------|
G|---5-4-2-------------------7\5-4-2------------------------|
D|---x-2-2-5-2-2---------------x-2-2-5-2-2------------------|
A|-3-3-3-3-3-0-0-2-2-------3---3-3-3-3-3-0-2-2--------------|
E|-1-1-----------3-3-------1---1-----------3-3 -------------|


   /'''Ten E Notes'''\
e|----------------------------------------------------------|
B|--5-5-5-5-5-5-5-5-5-5--5-6-8-6-5---5----------------------|
G|---------------------------------7---5-7------------------|
D|----------------------------------------------------------|
A|----------------------------------------------------------|
E|----------------------------------------------------------|

Drums Kick in
Strum F, C, Am, G


"I'm fighting this assignment. I'm wishing we'd fall into the world."
Piano riff transposed for guitar
e|---------------------------------------------------------------------------------------|
B|----------------------------10---------------------------------------------------------|
G|-12-12-12-9~----9--12-12-12----12-10-9------12-12-12-9~----9--9-9----------------------|
D|-------------12------------------------12~--------------12--------12-10-12-10-9h10p9---|
A|-------------------------------------------------------------------------------------12|
E|---------------------------------------------------------------------------------------|

Chorus:
Same progression as the verse

Beautiful overlying piano riff
e|--12-12------------------12-12----------------------------|
B|--------15-13-12---------------15-13-12-12----------------|
G|-----------------12-14~---------------------14--Repeat----|
D|----------------------------------------------------------|
A|----------------------------------------------------------|
E|----------------------------------------------------------|

Piano riff after break
e|--12-12-12-12--10-10-10-10--8-8-8-8-7-7-7-8---------------|
B|----------------------------------------------------------|
G|----------------------------------------------------------|
D|----------------------------------------------------------|
A|----------------------------------------------------------|
E|----------------------------------------------------------|

"Until he's spared no reason"
Fade out strumming F, C, Am, G

Questions, comments, compliments, or corrections go to Happyquakiduck@msn.com

Matty C <3

To: Marshall and Duff
Tap to rate this tab
# A B C D E F G H I J K L M N O P Q R S T U V W X Y Z