Song name
# A B C D E F G H I J K L M N O P Q R S T U V W X Y Z

Pinback - Bloods On Fire tab

--------------------------------------------------
	     Bloods on Fire - Pinback
--------------------------------------------------
Tabbed by: Matty C
Email: Happyquakiduck@msn.com

Tuning: Standard EADGBE

This song is in 7/4

Verse

G#m, F#sus, G#m, F#sus

Chorus
E, Bmaj7, B

Post chorus. It meshes right in with the G#m of the following verse.
e|---------------------4-------------------------------------------------|
B|---------------------4-------------------------------------------------|
G|---------------------4-------------------------------------------------|
D|----4p2----6\-1------6-------------------------------------------------|
A|--------4--------4-2-6-------------------------------------------------|
E|--2------------------4-------------------------------------------------|

Outro guitar
e|-----------------------------------------------------------------------|
B|-----------------------------------------------------------------------|
G|-------------1----------------------4----------------------------------|
D|----2---4------4-2-4-------2---4------4-2-4------2---4----2p1----------|
A|------2----2----------2------2---2----------2------2----2------2---2---|
E|--2----------------------2---------------------2----------------2------|

*Chords Used*
_____________
G#m    466444|
F#sus  244422|
E      022100|
Bmaj7  x24342|
B      x24442|
_____________|


Questions, comments, compliments, or corrections go to Happyquakiduck@msn.com

Matty C <3

To: Billy
Tap to rate this tab
 
# A B C D E F G H I J K L M N O P Q R S T U V W X Y Z