Song name
# A B C D E F G H I J K L M N O P Q R S T U V W X Y Z

Pinback - Afk tab

---------------------------------------
	     AFK - Pinback
---------------------------------------
Tabbed by: Matty C
Email: Happyquakiduck@msn.com

Tuning: Standard EADGBE


*Drum intro*

Main riff
e|------------------------------------------------------------|
B|------------------------------------------------------------|
G|------------------------------------------------------------|
D|-----0-----------0----------0----------0--------------------|
A|---5---5-------5---5------5---5------5---5------------------|
E|-5---------5-5--------5-5--------5-5------------------------|

"We're too late"
e|------------------------------------------------------------|
B|------------------------------------------------------------|
G|------------------------------------------------------------|
D|-----------------------------Repeat-as-needed---------------|
A|------------------------------------------------------------|
E|-0-2-0--2-0-2--0-2-0--2-0-2---------------------------------|


This next part is counted in an odd fashion.
Count 1 2 3 4, 1 2 3 4, 1 2 3, 1
Change chords on the 1 beat.
"No one uses the phone anymore."
e|------------------------------------------------------------|
B|------------------------------------------------------------|
G|--7--9--10-12-----------------------------------------------|
D|--7--9--10-12-----------------------------------------------|
A|--5--7--8--10-----------------------------------------------|
E|------------------------------------------------------------|

Main riff
"Protect, embrace, engulf. Remember the summer in Abaddon."
e|------------------------------------------------------------|
B|------------------------------------------------------------|
G|------------------------------------------------------------|
D|-----0-----------0----------0----------0--------------------|
A|---5---5-------5---5------5---5------5---5------------------|
E|-5---------5-5--------5-5--------5-5------------------------|


"Release me"
e|------------------------------------------------------------|
B|------------------------------------------------------------|
G|-----------4-2----------------------------------------------|
D|-0-2-4-2/4-----5p4------------------------------------------|
A|-------------------5\2--(2)-(4)-(5)-------------------------|
E|------------------------------------------------------------|

This riff is messed around with in the background
e|------------------------------------------------------------|
B|--0-------------------0-------------------------------------|
G|---2-2----2-0-2-----2---2-----------------------------------|
D|----4---4-------4h5-----------------------------------------|
A|------------------------------------------------------------|
E|------------------------------------------------------------|

Palm muted riff at the end
"Miles and miles of telephone poles..."
e|------------------------------------------------------------|
B|--7-5-3-5--7-5-3-5--7-5-3-5--7-5-3-5------------------------|
G|------------------------------------------------------------|
D|------------------------------------------------------------|
A|------------------------------------------------------------|
E|------------------------------------------------------------|

Ending is just this riff
"And I miss you. Not in a slight way. But I miss you"
e|------------------------------------------------------------|
B|---------------------------------------------------------3--|
G|-----------4-2---------------------------------4-2-------4--|
D|-0-2-4-2/4-----5p4-------------------0-2-4-2/4-----5p4---4--|
A|-------------------5\2--(2)-(4)-(5)--------------------5\2--|
E|------------------------------------------------------------|


Questions, comments, compliments, or corrections go to Happyquakiduck@msn.com

Matty C <3
Tap to rate this tab
 
# A B C D E F G H I J K L M N O P Q R S T U V W X Y Z