Song name
# A B C D E F G H I J K L M N O P Q R S T U V W X Y Z

Pinback - Seville tab

-------------------------------------------------
	     Seville - Pinback
-------------------------------------------------
Tabbed by: Matty C
Email: Happyquakiduck@msn.com

Tuning: Standard EADGBE

Palm muted
Intro and Verse
Sounds good with delay
e|------------------------------------------------------|
B|------------------------------------------------------|
G|-----0-----7-----0-----0-----4----0-------------------|
D|-------5-----5-----------5-----5----------------------|
A|---7-----7-----7-----7-----7-----7--------------------|
E|------------------------------------------------------|

Pre-chorus riff
e|------------------------------------------------------|
B|------------------------------------------------------|
G|--4-7--4-2--4-7~--4-2~--------------------------------|
D|------------------------------------------------------|
A|------------------------------------------------------|
E|------------------------------------------------------|

Chorus
Strum with up and down strokes
e|--x--3------------------------------------------------|
B|--0--3------------------------------------------------|
G|--4--5------------------------------------------------|
D|--4--5------------------------------------------------|
A|--2--3------------------------------------------------|
E|--3--3------------------------------------------------|

Keyboard riff after "Gonna kill us all" to fade out

e|-------10---------10----12----------10----------------|
B|-10h12----12-10h12---10----12p10h12-----7-------------|
G|------------------------------------------9~-7---=----|
D|-----------------------------------------------9~-----|
A|------------------------------------------------------|
E|------------------------------------------------------|


Questions, comments, compliments, or corrections send to Happyquakiduck@msn.com

Matty C <3
Tap to rate this tab
 
# A B C D E F G H I J K L M N O P Q R S T U V W X Y Z