Song name
# A B C D E F G H I J K L M N O P Q R S T U V W X Y Z

Pineapple Thief - Shoot First tab

Song: Shoot First
Artist: Pineapple Thief
Album: Tightly Unwound
Tabbed by: Rehmer (Rehmeronsolos)

Tuning: Standard (EADGBe)

INTRO   
e|--0--0--0--0--0--0--0--0--0--|
B|--1--1--1--1--1--1--1--1--1--|
G|--0--0--0--0--0--0--0--0--0--|    12x   
D|--2--2--2--2--2--2--2--2--2--|
A|--0--0--0--0--0--0--0--2--x--|
E|--------------------------3--|


BRIDGE (0:25)
e|--1--|
B|--1--|
G|--3--|    
D|--3--|
A|--1--|
E|-----|

(0:27)
e|--0--0--0--0--0--0--0--0--0--|
B|--1--1--1--1--1--1--1--1--1--|
G|--0--0--0--0--0--0--0--0--0--|    8x   
D|--2--2--2--2--2--2--2--2--2--|
A|--0--0--0--0--0--0--0--2--x--|
E|--------------------------3--|

It's follow by some Overtones (0:44)

BRIDGE (0:52)
e|--1--|
B|--1--|
G|--3--|    
D|--3--|
A|--1--|
E|-----| 

VERSE 
Part without guitar (0:54) 
They only playing an open G at 0:57 and 1:05

(1:11) 
e|--0--|
B|--1--|
G|--0--|  
D|--2--|
A|--0--|
E|-----|


BRIDGE (1:28)
e|--------------------------------|
B|--8-------10-------7-------8----|
G|---------------------------11---|    
D|--------------------------------|
A|--------------------------------|
E|--------------------------------|


CHORUS (1:45)
e|--0-------1-------1-------0-----|
B|--1-------3-------1-------1-----|
G|--0-------2-------2-------2-----|   2x  
D|--2-------0-------3-------2-----|
A|--3---------------3-------0-----|
E|------------------1-------------|


BRIDGE (2:18)
e|--1--|
B|--1--|
G|--3--|    
D|--3--|
A|--1--|
E|-----|

VERS (2:20)
e|-----|
B|--0--|
G|--0--|    
D|--2--|
A|--2--|
E|--0--|

(2:37)
e|----------------------------------------------------3--|
B|------------------12-------10-------7-------8-------7--|
G|--4-------5--------------------------------------------|   
D|-------------------------------------------------------|
A|-------------------------------------------------------|
E|-------------------------------------------------------|

e|-------------------------------------------------------------3--|
B|------------------12-------13-------7-------10-------8-------7--|
G|--4-------5-----------------------------------------------------|   
D|----------------------------------------------------------------|
A|----------------------------------------------------------------|
E|----------------------------------------------------------------|


CHORUS (3:11)
e|--0-------1-------1-------0-----|
B|--1-------3-------1-------1-----|
G|--0-------2-------2-------2-----|   2x  
D|--2-------0-------3-------2-----|
A|--3---------------3-------0-----|
E|------------------1-------------|


BRIDGE (3:44)
e|--1--|
B|--1--|
G|--3--|    
D|--3--|
A|--1--|
E|-----|


Outro (3:46)
e|--0--0--0--0--0--0--0--0--0--|
B|--1--1--1--1--1--1--1--1--1--|
G|--0--0--0--0--0--0--0--0--0--|   8x   
D|--2--2--2--2--2--2--2--2--2--|
A|--0--0--0--0--0--0--0--2--x--|
E|--------------------------3--|

e|--0--|
B|--0--|
G|--1--|    
D|--0--|
A|--2--|
E|--0--|
Tap to rate this tab
# A B C D E F G H I J K L M N O P Q R S T U V W X Y Z