Song name
# A B C D E F G H I J K L M N O P Q R S T U V W X Y Z

Pineapple Thief - Barely Breathing tab

-------------------------------------------------------------------------------
			     Barely Breathing - Pineapple Thief
-------------------------------------------------------------------------------
Tabbed by: Klinkokkos	
Email:

Tuning: Standard E

Verse
e|---------------------------------------------------------------------------|
B|---------------------------------------------------------------------------|
G|----4---4---4---4---4---4---4---4---4---4---4---4---4---4---4---4----------|
D|---5---5---5---5---5---5---5---5---5---5---5---5---5---5---5---5-----------|
A|--5---5---5---5---5---5---5---5---5---5---5---5---5---5---5---5------------|
E|-3---3---3---3---2---2---2---2---0---0---0---0---2---2---2---2-------------|

Ref
e|-0-0-0-0--0-0-0-0--0-0-0-0--0-0-0-0--0-0-0-0-0-0-0-0-0-0-0-0---------------|
B|-1-1-1-1--3-3-3-3--1-1-1-1--0-0-0-0--0-0-0-0-0-0-0-0-0-0-0-0---------------|
G|-0-0-0-0--0-0-0-0--0-0-0-0--0-0-0-0--0-0-0-0-0-0-0-0-0-0-0-0---------------|
D|-2-2-2-2--2-2-2-2--2-2-2-2--2-2-2-2--2-2-2-2-2-2-2-2-2-2-2-2---------------|
A|-3-3-3-3--3-3-3-3--3-3-3-3--3-3-3-3--2-2-2-0-0-0-0-0-0-2-2-2---------------|
E|-------------------------------------0-0-0-2-2-2-3-3-3-0-0-0---------------|

e|-0-0-0-0--0-0-0-0--0-0-0-0--0-0-0-0--0-0-0-0-0-0-0-------------------------|
B|-1-1-1-1--3-3-3-3--1-1-1-1--0-0-0-0--0-0-0-0-0-0-0--0-0--------------------|
G|-0-0-0-0--0-0-0-0--0-0-0-0--0-0-0-0--2-2-2-2-2-2-2--2-2-----4-and so on----|
D|-2-2-2-2--2-2-2-2--2-2-2-2--2-2-2-2--2-2-2-2-2-2-2--0-0----5---------------|
A|-3-3-3-3--3-3-3-3--3-3-3-3--3-3-3-3--0-0-0-0-0-0-0--0-0---5----------------|
E|----------------------------------------------------2-2--3-----------------|



************************************

| /   slide up
| \   slide down
| h   hammer-on
| p   pull-off
| ~   vibrato
| +   harmonic
| x   Mute note
| b   Bend
| pb  Pre-bend
| br  Bend release
| pbr Pre-bend release
| brb Bend release bend

************************************
Tap to rate this tab
 
# A B C D E F G H I J K L M N O P Q R S T U V W X Y Z