Song name
# A B C D E F G H I J K L M N O P Q R S T U V W X Y Z

Pineapple Thief - Nothing At Best tab

-------------------------------------------------------------------------------
			     Nothing at Best - Pineapple Thief
-------------------------------------------------------------------------------
Tabbed by: Klinkokkos
Email:

Tuning: Drop D

Think this cover most of the riffs. Again I'm sure there is some minor stuff thats not 100%.

Intro/End and at 2:16 in the song, you can hear he switches.Very cool!
e|---------------------------------------------------------------------------|
B|---------------------------------------------------------------------------|
G|---------------------------------------------------------------------------|
D|-0-7p0-0-7p0-00-0-3p0-0-3p0-00-0-4p0-0-4p0-00-3p0-0-3p0--This string at end of the song|
A|---------------------------------------------------------------------------|
D|-0-7p0-0-7p0-00-0-3p0-0-3p0-00-0-4p0-0-4p0-00-3p0-0-3p0--------------------|

0:09
D|---------------------------------------------------------------------------|
A|---------------------------------------------------------------------------|
D|--0-x(5)-0-x(5)-0-x(5)-0-x(5)-0-x(5)-0-x(5)-0------------------------------|


e|---------------------------------------------------------------------------|
B|---------------------------------------------------------------------------|
G|-55555555555---------------------------------------------------------------|
D|---------------------------------------------------------------------------|
A|-33333333333---0h3--0h3--0h3--0h3--0h3-------------------------------------|
D|--------------0----0----0----0----0----------------------------------------|

Verse
e|---------------------------------------------------------------------------|
B|---------------------------------------------------------------------------|
G|---------------------------------------------------------------------------|
D|---------------------------------------------------------------------------|
A|---------------------------------------------------------------------------|
D|-0-0-0-7p0-0-7p0--0-0-0-3p0-0-3p0--0-0-0-4p0-0-4p0-0-0-0-3p0-0-3p0---------|

1:12        1st guitar                       2nd guitar
e|------------------------------|---------------------------------------------|
B|------------------------------|---------------------------------------------|
G|------------------------------|--5555555555555555---------------------------|
D|------------------------------|---------------------------------------------|
A|----0h3--0h3--0h3--0h3--0h3---|--3333333333333333---------------------------|
D|---0----0----0----0----0------|---------------------------------------------|

Ref
e|---------------------------------------------------------------------------|
B|---------------------------------------------------------------------------|
G|--444444--555555555---777777-77777-777777----------------------------------|
D|--333333--------------777777-77777-777777----------------------------------|
A|--333333--333333333---555555-55555-555555----------------------------------|
D|--333333--------------000000-00000-000000----------------------------------|

e|---------------------------------------------------------------------------|
B|---------------------------------------------------------------------------|
G|--44444444--444444444----555555555555--------------------------------------|
D|------------333333333------------------------------------------------------|
A|--22222222--333333333----333333333333--------------------------------------|
D|------------333333333------------------------------------------------------|



************************************

| /   slide up
| \   slide down
| h   hammer-on
| p   pull-off
| ~   vibrato
| +   harmonic
| x   Mute note
| b   Bend
| pb  Pre-bend
| br  Bend release
| pbr Pre-bend release
| brb Bend release bend

************************************
Tap to rate this tab
 
# A B C D E F G H I J K L M N O P Q R S T U V W X Y Z