Song name
# A B C D E F G H I J K L M N O P Q R S T U V W X Y Z

Pineapple Thief - Pray For Me tab

-------------------------------------------------------------------------------
			     Prey For me- Pineapple Thief
-------------------------------------------------------------------------------
Tabbed by: Klinkokkos	
Email: Kristaaken@gmail.com

Tuning: E

Intro:
e|--------|---------|
B|--------|---------|
G|--------|---------| You can choose which you like most.
D|-2-2-2--|--9-9-9--|  
A|-2-2-2--|--7-7-7--|
E|-0-0-0--|--0-0-0--|
    E5        E5


00:08

     x4	        x4         x4	       x4 
e|----------|----------|----------|----------|-----------------------------------|
B|--------0-|----------|--------0-|----------|-----------------------------------|
G|------7---|--------0-|------5---|--------0-|-----------------------------------| 1a
D|----5-----|------9---|----7-----|------9---|-----------------------------------|
A|--7-------|----7-----|--0-------|----7-----|-----------------------------------|
E|----------|--8-------|----------|--0-------|-----------------------------------|


00:48
      x4        x4        x4        x4       01:14
e|----------|---------|---------|---------|--------------------------------------|
B|--------8-|-------5-|-------5-|-------7-|--------------------------------------|
G|------9---|-----4---|-----0---|-----7---|--------------------------------------| 1b
D|----9-----|---5-----|---5-----|---7-----|--9-9-9-9-----------------------------|
A|--7-------|-4-------|-3-------|-5-------|--7-7-7-7-----------------------------|
E|----------|---------|---------|---------|--0-0-0-0-----------------------------|
  

01:16
    And you must...
e|-3--3--3--3---------|
B|-3--3--3--3---------|
G|-0--0--2--0---------| 1c
D|-2--0--0--2---------|
A|-2--2--0--3---------|
E|-0--3---------------|


02:04 go back to "1a" and repeat it twice.
02:31 go to "1b" and repeat twice
02:59 do the "1c" part over again


Then the intro part comes in at 03:47

At 03:54 you will play something like this:

                   Or you can play it like this
e|-0------------|--3--0-0--2----------------------------------------------------|
B|-8------------|--0--0-0--3----------------------------------------------------|
G|-9--0--0---0--|--0--0-0--2----------------------------------------------------|
D|-9--9--9--12--|--2--2-2--0----------------------------------------------------|
A|-7--7--7---9--|--2--4-3-------------------------------------------------------|
E|----9--8--10--|--0--0-0-------------------------------------------------------|


************************************

| /   slide up
| \   slide down
| h   hammer-on
| p   pull-off
| ~   vibrato
| +   harmonic
| x   Mute note
| b   Bend
| pb  Pre-bend
| br  Bend release
| pbr Pre-bend release
| brb Bend release bend

************************************
Tap to rate this tab
# A B C D E F G H I J K L M N O P Q R S T U V W X Y Z